Вы находитесь на странице: 1из 5

En principio una de las partes que ms nos interesa aprender de la guitarra es el mstil.

En el mstil se encuentran
trastes, que son las subdivisiones que tiene el mstil. La guitarra tiene 6 cuerdas de distinto grosor, la ms fina
que est ms abajo, es la denominada primera cuerda, la siguiente es la segunda, y as hasta llegar a la sexta cuerd
que es la ms gruesa.
......---\
Mi 1ra. ||---------|----------|----------|----------|---------|-- Cuerda mas fina (Primera)
Si 2da. ||---------|----------|----------|----------|---------|-Sol 3ra.||---------|----------|----------|----------|---------|-Re 4ta. ||---------|----------|----------|----------|---------|-La 5ta. ||---------|----------|----------|----------|---------|-Mi 6ta. ||--------@|----------|----------|----------|---------|-- Cuerda mas gruesa (Sexta)
......___/1 Traste . 2 Traste . 3 Traste . 4 Traste . 5 Traste
MASTIL DE LA GUITARRA
@ = Donde se debe poner el dedo. No es ni en el medio, ni tampoco arriba de la barra de metal, si no justo al lado.

-----------------------------------------------------------------

Lo primero que tienes que aprender para saber tocar tablaturas de guitarra, es que las tablaturas son como si fueran
partituras que estan hechas para la guitarra, aunque no con toda la informacin que te daria una partitura, como por eje
los tiempos en que tienes que tocar cada nota en el punteo. Por lo cual tienes que haber escuchado antes la cancin de l
cual quieres tocar usando el tabs. La tablatura esta compuesta de seis lneas horizontales que representan las seis cuerd
de la guitarra, la lnea de arriba es la primera cuerda y la ultima lnea es la sexta cuerda.

e------------------------------primera cuerda
B------------------------------segunda cuerda
G------------------------------tercera cuerda
D------------------------------cuarta cuerda
A------------------------------quinta cuerda
E------------------------------sexta cuerda

Dentro de esta lneas van a estar representados unos nmeros que representan el traste que debes de pulsar en el mast
la guitarra.

Como ejemplo esta tablatura:

e----1------------------------B-----------------------------G-------3---------------------D----------5------------------A-----------------------------E------------------------------

Esto quiere decir que debes comenzar el punteo de guitarra pisando la cuerda primera(e) en el traste 1, despus sigue la
cuerda tercera(G) en el traste 3, despus sigue la cuerda cuarta(D) en el traste 5; no es difcil solo tienes que seguir los
nmeros y ya esta hecho el punteo. Hasta aqui facil.

NOTA: Si encuentras un 0 indica que la cuerda hay que tocarla al aire (sin pulsarla)

Cuando te encuentres en las tablaturas con unos nmeros encima de otros, los tienes que tocar al mismo tiempo y cada
en su traste. Se trataria de un acorde y se definiria como: dos o ms notas sonando al mismo tiempo.

Ejemplo de acorde:

e--2---------------------------primera cuerda
B--3---------------------------segunda cuerda
G----4-------------------------tercera cuerda
D------------------------------cuarta cuerda
A------------------------------quinta cuerda
E------------------------------sexta cuerda

Aqui hay dos notas una encima de otra, sin dejar un espacio. Esto lo tienes que tocar al mismo tiempo, o sea la primera
cuerda de la guitarra pisada en el traste 2 y la segunda cuerda pisada en el traste 3, presionas las dos cuerdas juntas en
traste que te indica y las tocas al mismo tiempo y de ah pasa a la otra nota que es la tercera cuerda en el traste 4.

Acordes de guitarra
Dom = cm
e----3--------------------------primera cuerda
B----4--------------------------segunda cuerda
G----5--------------------------tercera cuerda
D----5--------------------------cuarta cuerda
A----3--------------------------quinta cuerda
E-------------------------------sexta cuerda

Esto es un acorde. Arriba va el nombre del acorde y abajo como se ponen los dedos segn los nmeros, es facil y con la
practica podrs dominarlos.

Estos son todos los acordes basicos para guitarra puestos en tablatura:

E5
F5
F#5 G5 G#5A5
A#5 B5 C5 C#5D5
D#5
|----------------------------------------------------------------------|
|--------------------------------------------------------------3-------|
|------9--------10--------------------2---3---4---5---6---7----2---8---|
|-2----9---3----10---4---5---6---7----2---3---4---5---6---7---0---8---|
|-2-or-7---3----8---4---5---6---7---0---1---2---3---4---5--------6---|
|-0--------1---------2---3---4---5-------------------------------------|

Acordes menores de guitarra

Em Fm Gm Am Bm Cm Dm
|-0---1---3---0---2---3---1-|
|-0---1---3---1---3---4---3-|
|-0---1---3---2---4---5---2-|
|-2---3---0---2---4---5---0-|

|-2---3-------0-------------|
|-0---1---------------------|

Definicion del tabulado para guitarra

Los siguientes simbolos son los que mas frecuentemente aparecen en los "tabs" para guitarra, en algunos puede que est
signifiquen lo mismo, de todas maneras es muy usual que, en estos casos, la persona que lo ha hecho explique lo que
realmente quieren significar.
Se ponen en ingls, porque asi es como mayormente se conocen.
)
= Bend

~~

= Slide
= Vibrato

= Hammer on

= Pulloff

PM

= Palm mute

x\x = Pick scrape (rasgar con la pua)

NH

= Armonico natural (Natural armonic)


= Tremelo Pick

= Unison Bend

= Ghost Bend (Bend fantasma)

|\

= Ghost Bend and release (Bend fantasma y soltar)

= Retroalimentacion descontrolada (Uncontrolled feedback)

BEND:
Se toca la primera nota y luego se estira la cuerda con el dedo que presiona el mstil hasta alcanzar un sonido de un
medio tono, un tono completo o segun se indique.
E-|------------------|
B-|----5)------------|
G-|------------------|
D-|------------------|
A-|------------------|
E-|------------------|

HARMONICO NATURAL:
Se toca la cuerda ligeramente sin llegar a presionar con la mano que toca el mstil en el traste que se indique y despues
tocada la nota.

HARMONICO ARTIFICIAL (PINCH):


Despues de que la nota es tocada normalmente, se toca ligeramente con la punta de el dedo de la mano que hace el pick
llegar a apagar el sonido de la nota (una octava ms arriba de la nota tocada originalmente) para producir el sonido de u
harmnico. (pinch) A.H.
E-|----9-------------|
B-|------------------|

G-|------------------|
D-|------------------|
A-|------------------|
E-|------------------|

PALM MUTE:
La nota es ligeramente apagada con el filo de la mano que hace el pick mientras esta esta tocando las notas.
E-|------------------|
B-|------------------|
G-|------------------|
D-|------------------|
A-|------------------|
E-|--0--0--0--0------|

SLIDE:
Se toca la nota primera nota y se corre el dedo hasta un trasto ms arriba o ms abajo segun sea el caso.La segunda not
es tocada con la mano que hace el pick.
E-|------------------|
B-|----5/8-----------|
G-|------------------|
D-|------------------|
A-|------------------|
E-|------------------|

SLIDE PICK:
Es lo mismo que el slide solo que la segunda nota si es tocada.
E-|------------------|
B-|----5/8-----------|
G-|------------------|
D-|------------------|
A-|------------------|
E-|------------------|

SLIDE LARGO:
Se hace el pick durante el slide hasta alcanzar la nota deseada.
E-|------------------|
B-|----/5------------|
G-|------------------|
D-|------------------|
A-|------------------|
E-|------------------|

SLIDE OFF:
Es el slide largo solo que hacia abajo.
E-|------------------|
B-|----5/----\5------|
G-|------------------|
D-|------------------|
A-|------------------|
E-|------------------|

PICK SLIDE:
Con el filo de el pick (pua) se presiona sobre los trastos y se hace el slide.
E-|------------------|
B-|----x\------------|
G-|------------------|
D-|------------------|
A-|------------------|

E-|------------------|

HAMMER-ON:
Se toca la primera nota y la segunda se hace sonar por medio de un tap (presionar el trasto de la guitarra y lograr un son
sin necesidad de hacer un punteo) la segunda nota.
E-|------------------|
B-|----5h7-----------|
G-|------------------|
D-|------------------|
A-|------------------|
E-|------------------|

PULL-OFF:
Se colocan los dos dedos en las notas que se van a tocar, se toca la primera nota y se deja de presionar esta para dejar s
la nota de ms abajo. La segunda nota no es tocada con la mano que hace el pick (punteo).
E-|------------------|
B-|----7p5-----------|
G-|------------------|
D-|------------------|
A-|------------------|
E-|------------------|

TREMOLO PICKING:
La nota es tocada con la mano que hace el pick hacia arriba y hacia abajo lo ms rpido que sea posible.
E-|------------------|
B-|----5-------------|
G-|----/-------------|
D-|----/-------------|
A-|----/-------------|
E-|------------------|

VIBRATO:
Se toca la nota y se hace vibrar con el vibrato o palanca de la guitarra, o bien haciendo un bend lo ms rpido posible ha
arriba y hacia abajo.
E-|------------------|
B-|----5~------------|
G-|------------------|
D-|------------------|
A-|------------------|
E-|------------------|

Esto no es un curso, simplemente es lo mas basico para aprender a leer tabs de guitarra. Recomiendo a los que empiezan
tocar la guitarra, que antes de intentar tocar las canciones de sus grupos preferidos, que lo mejor es aprender y practica
acordes sueltos varios dias (o semanas), hasta coger cierta soltura en los dedos de las manos. Con la practica os resultar
mas facil.