Вы находитесь на странице: 1из 52

2011BATCH

PAGE NO: 1
FOR THOSE WHO JOINED 2011ONWARDS
PART:

------------------------------------------------------------------------------------------Date and
Subject
Title of the
Paper
Session
Code
------------------------------------------------------------------------------------------SEMESTER : 1
Apr-30-13 AN
111A
GRAMMAR AND
TRANSLATION
Apr-30-13 AN
111H
STORY,NOVEL,GRAMMAR AND TRANSLATION - I
Apr-30-13 AN
111S
BASIC GRAMMAR AND
SIMPLE TRANSLATION HISTORY OF SANSKRIT
LITERATURE-THE
VEDIC PERIOD, THE VEDANGAS AND THE CLASSICAL
PERIOD
Apr-30-13 AN
111T
THARKALA
KAVITHAIYUM SIRUKATHAIYUM
Apr-30-13 AN
1BBA111
TAMIL SEMMOZHIYUM
VANIHA MADALHALUM
Apr-30-13 AN
1BCC111
VANIGAKADITHANGAL
Apr-30-13 AN

1BCO111

VANIGAKADITHANGAL

Apr-30-13 AN

1BCS111

VANIGAKADITHANGAL

------------------------------------------------------------------------------------------SEMESTER : 2
Page 1

2011BATCH
Apr-30-13 FN
121A
AND TRANSLATION-II
Apr-30-13 FN
121H
GRAMMAR AND TRANSLATION-II
Apr-30-13 FN
121S

ARABIC - GRAMMAR

Apr-30-13 FN
121T
ILAKKIYAMUM PUTHINAMUM
Apr-30-13 FN
1BBA211
MELANMAI
Apr-30-13 FN
1BCC211
MURAIGAL
Apr-30-13 FN
1BCO211
MURAIGAL
Apr-30-13 FN
1BCS211
MURAIGAL

IDAIKKALA

HINDI- PROSE,
SANSKRIT-II

ALUVALAGA
ALUVALAGA
ALUVALAGA
ALUVALAGA

------------------------------------------------------------------------------------------SEMESTER : 3
Apr-29-13 AN
131A
AND GRAMMAR
Apr-29-13 AN
131H
AND HISTORY OF HINDI LITERATURE
Apr-29-13 AN
131S
PROSE
Apr-29-13 AN
131T
NADAKAMUM

ARABIC-III- QURAN
HINDI-III- POETRY
SANSKRIT- III
KAPPIYAMUM

------------------------------------------------------------------------------------------SEMESTER : 4
Apr-29-13 FN

141A

ARABIC - IV

Apr-29-13 FN
FUNCTIONAL HINDI
Apr-29-13 FN

141H

JOURNALISM AND

141S

SANSKRIT IV

Page 2

2011BATCH
141T

Apr-29-13 FN
PANDAI ILAKKIAMUM
URAINADAIYUM
------------------------------------------------------------------------------------------* FN = 10.00 AM TO 1.00 PM;
AN
= 2.00 PM TO 5.00 PM

PAGE NO: 2
FOR THOSE WHO JOINED 2011ONWARDS
PART:

------------------------------------------------------------------------------------------Date and
Subject
Title of the
Paper
Session
Code
------------------------------------------------------------------------------------------SEMESTER : 1
May-03-13 AN
112E
COMMUNICATION SKILLS
May-03-13 AN
1BBA121

PROSE AND
BUSINESS ENGLISH

------------------------------------------------------------------------------------------SEMESTER : 2
May-03-13 FN
122E
PROSE, EXTENSIVE
READING AND COMMUNICATION SKILLS
May-03-13 FN
1BBA221
BUSINESS REPORT
WRITING
------------------------------------------------------------------------------------------SEMESTER : 3
Page 3

2011BATCH
May-02-13 AN
132E
COMMUNICATION SKILLS

POETRY,DRAMA AND

------------------------------------------------------------------------------------------SEMESTER : 4
May-02-13 FN
142E
SHAKESPEARE AND
ENGLISH FOR COMPETITIVE EXAMINATIONS
------------------------------------------------------------------------------------------*

FN = 10.00 AM TO 1.00 PM;


= 2.00 PM TO 5.00 PM

AN

PAGE NO: 1
FOR THOSE WHO JOINED 2011ONWARDS
COURSECODE : 101
PART: 3 & 4

B.A(TAMIL)

------------------------------------------------------------------------------------------Date and
Subject
Title of the
Paper
Session
Code
------------------------------------------------------------------------------------------SEMESTER : 1
May-14-13 AN

1BTA1C1

IKKALA ILKKIYAM

May-15-13 AN

1BTA1C2

ILKKIA VARALARU

------------------------------------------------------------------------------------------SEMESTER : 2
Page 4

2011BATCH
May-14-13 FN

1BTA2C1

BAKTHI ILAKKIYAM

May-15-13 FN
NANNOOL ELUTHU

1BTA2C2

ILAKKANAM -

------------------------------------------------------------------------------------------SEMESTER : 3
May-10-13 AN

1BTA3C1

SITRILLAKKIAM

May-11-13 AN
NANNOOL CHOL

1BTA3C2

ILAKKANAM -

------------------------------------------------------------------------------------------SEMESTER : 4
May-10-13 FN

1BTA4C1

KAPPIYA ILAKKIAM

May-11-13 FN
1BTA4C2
ILAKKANAM
AGAPPORUL
May-13-13 FN
1BTAE1A
ELECTIVE: MANITHA
URIMAIGAL
May-13-13 FN
1BTAE1B
ELECTIVE:
PENNIYAM
------------------------------------------------------------------------------------------*

FN = 10.00 AM TO 1.00 PM;


= 2.00 PM TO 5.00 PM

PAGE NO: 2
FOR THOSE WHO JOINED 2011ONWARDS
COURSECODE : 102
PART: 3 & 4

B.LITT (TAMIL)

Page 5

AN

2011BATCH
------------------------------------------------------------------------------------------Date and
Subject
Title of the
Paper
Session
Code
------------------------------------------------------------------------------------------SEMESTER : 1
May-08-13 AN

1BLT1C1

IKKALA ILAKKIYAM

May-09-13 AN
1BLT1C2
(ELUTHUM) ILAKKANAM YAPPUM
May-10-13 AN
1BLT1S1
PUGARKANDAM
May-11-13 FN
1NME1D
URIMAIYIYAL

ILAKKANAM NANNUL
SILAPPATHIKARAM MANITHA

------------------------------------------------------------------------------------------SEMESTER : 2
May-08-13 FN

1BLT2C1

May-09-13 FN
1BLT2C2
NANNOOL SOLLUM ANIYUM
May-10-13 FN
1BLT2S1
MADURAIKANDAM
May-11-13 FN
1BLT2S2
ARATHUPAL

ARAILAKKIYAM
ILAKKANAM SILAPPATHIKARAM THIRUKKURAL -

------------------------------------------------------------------------------------------SEMESTER : 3
Apr-29-13 AN

1BLT3C1

SAMAYA ILAKKIAM

Apr-30-13 AN
PURAMUM)
May-02-13 AN

1BLT3C2

ILAKKANAM (AGAMUM

1BLT3S1

SILAPPATHIKARAM -

Page 6

2011BATCH
VANGIKKANDAM
May-03-13 AN
1BLT3S2
THIRUKKURAL-PORUTPAL
May-06-13 AN

1SBS3A3

KOIRKALAI

May-07-13 AN
THODARBIAL

1NME3D/

MAKKAL THAGAVAL

1NME3E

MEYIAL

------------------------------------------------------------------------------------------SEMESTER : 4
Apr-29-13 FN

1BLT4C1

KAPPIYA ILAKKIAM

Apr-30-13 FN
EZHUTHATHIKARAM
May-02-13 FN

1BLT4C2

THOLKAPPIAM -

1BLT4C3

CHITRILLAKKIYAM

May-03-13 FN
INPATHUPAL
May-06-13 FN

1BLT4S1

THIRUKKURAL -

1SBS4A2

ISAIKKALAI

------------------------------------------------------------------------------------------*

FN = 10.00 AM TO 1.00 PM;


= 2.00 PM TO 5.00 PM

AN

PAGE NO: 3
FOR THOSE WHO JOINED 2011ONWARDS
COURSECODE : 103
PART: 3 & 4

B.A. (ENGLISH)

------------------------------------------------------------------------------------------Page 7

2011BATCH
Subject

Date and
Title of the
Paper
Session
Code
------------------------------------------------------------------------------------------SEMESTER : 1
May-13-13 AN

1BEN1C1

PROSE

May-14-13 AN

1BEN1C2

FICTION

------------------------------------------------------------------------------------------SEMESTER : 2
May-13-13 FN

1BEN2C1

POETRY - I

May-14-13 FN

1BEN2C2

DRAMA - I

------------------------------------------------------------------------------------------SEMESTER : 3
May-10-13 AN

1BEN3C1

POETRY - II

May-11-13 AN

1BEN3C2

DRAMA - II

------------------------------------------------------------------------------------------SEMESTER : 4
May-10-13 FN

1BEN4C1

SHAKESPEARE

May-11-13 FN
1BEN4C2
INDIAN WRITING IN
ENGLISH - I
------------------------------------------------------------------------------------------Page 8

2011BATCH
* FN = 10.00 AM TO 1.00 PM;
= 2.00 PM TO 5.00 PM

AN

PAGE NO: 4
FOR THOSE WHO JOINED 2011ONWARDS
COURSECODE : 104
VOCATIONAL)

B.A. (ENGLISH
PART: 3 & 4

------------------------------------------------------------------------------------------Date and
Subject
Title of the
Paper
Session
Code
------------------------------------------------------------------------------------------SEMESTER : 1
May-14-13 AN

1BEV1C1

PROSE

May-15-13 AN

1BEV1C2

FICTION

------------------------------------------------------------------------------------------SEMESTER : 2
May-14-13 FN

1BEV2C1

POETRY

May-15-13 FN

1BEV2C2

DRAMA

------------------------------------------------------------------------------------------SEMESTER : 3
May-10-13 AN
COMMUNICATION

1BEV3C1

Page 9

SPOKEN

May-11-13 AN
COMMUNICATION

2011BATCH
1BEV3C2

WRITTEN

------------------------------------------------------------------------------------------SEMESTER : 4
May-10-13 FN

1BEV4C1

SHAKESPEARE

May-11-13 FN

1BEV4C2

BROADCASTING

May-13-13 FN

1BEVEIA

WOMENS STUDIES

May-13-13 FN
1BEVEIB
DEVELOPING
LANGUAGE SKILLS
------------------------------------------------------------------------------------------*

FN = 10.00 AM TO 1.00 PM;


= 2.00 PM TO 5.00 PM

AN

PAGE NO: 5
FOR THOSE WHO JOINED 2011ONWARDS
COURSECODE : 111
PART: 3 & 4

B.A. (HISTORY)

------------------------------------------------------------------------------------------Date and
Subject
Title of the
Paper
Session
Code
------------------------------------------------------------------------------------------SEMESTER : 1
May-13-13 AN
UPTO 900 A.D.

1BHI1C1
Page 10

HISTORY OF INDIA

May-14-13 AN
CIVILIZATION

2011BATCH
1BHI1C2

WORLD

------------------------------------------------------------------------------------------SEMESTER : 2
May-13-13 FN
1BHI2C1
FROM 900 TO 1707 A.D.
May-14-13 FN
1BHI2C2
FROM 476 TO 1453 A.D.

HISTORY OF INDIA
HISTORY OF EUROPE

------------------------------------------------------------------------------------------SEMESTER : 3
May-10-13
FROM 1707
May-11-03
FROM 1453

AN
1BHI3C1
TO 1947 A.D.
AN
1BHI3C2
TO 1789 A.D.

HISTORY OF INDIA
HISTORY OF EUROPE

------------------------------------------------------------------------------------------SEMESTER : 4
May-10-13 FN
1BHI4C1
CONTEMPORARY
INDIA
May-11-03 FN
1BHI4C2
HISTORY OF EUROPE
FROM 1789 TO 1945 A.D
------------------------------------------------------------------------------------------*

FN = 10.00 AM TO 1.00 PM;


= 2.00 PM TO 5.00 PM

PAGE NO: 6
FOR THOSE WHO JOINED 2011ONWARDS
Page 11

AN

2011BATCH
COURSECODE : 112
B.A.(POLITICAL SCIENCE)
PART: 3 & 4
------------------------------------------------------------------------------------------Date and
Subject
Title of the
Paper
Session
Code
------------------------------------------------------------------------------------------SEMESTER : 1
May-14-13 AN

1BPS1C1

POLITICAL THEORY

May-15-13 AN
CONSTITUTION

1BPS1C2

INDIAN

------------------------------------------------------------------------------------------SEMESTER : 2
May-14-13 FN
1BPS2C1
PUBLIC ADMINISTRATION
May-15-13 FN
1BPS2C2
THOUGHT

PRINCIPLES OF
INDIAN POLITICAL

------------------------------------------------------------------------------------------SEMESTER : 3
May-10-13 AN
GOVERNMENTS - I

1BPS3C1

WESTERN

May-11-13 AN
THINKERS

1BPS3C2

ADMINISTRATIVE

------------------------------------------------------------------------------------------SEMESTER : 4
Page 12

May-10-13 FN
GOVERNMENTS - II
May-11-13 FN
THOUGHT
May-13-13 FN
ADMINISTRATION
May-13-13 FN

2011BATCH
1BPS4C1

WESTERN

1BPS4C2

WESTERN POLITICAL

1BPSE1A

SOCIAL WELFARE

1BPSE1B

WOMEN STUDIES

------------------------------------------------------------------------------------------*

FN = 10.00 AM TO 1.00 PM;


= 2.00 PM TO 5.00 PM

AN

PAGE NO: 7
FOR THOSE WHO JOINED 2011ONWARDS
COURSECODE : 121
PART: 3 & 4

B.Sc.,(MATHEMATICS)

------------------------------------------------------------------------------------------Date and
Subject
Title of the
Paper
Session
Code
------------------------------------------------------------------------------------------SEMESTER : 1
May-13-13 AN
1BMA1C1
DIFFERENTIAL
CALCULUS AND TRIGONOMETRY
May-14-13 AN
1BMA1C2
THEORY OF
EQUATIONS,THEORY OF NUMBERS AND INEQUALITIES
------------------------------------------------------------------------------------------SEMESTER : 2
Page 13

2011BATCH
1BMA2C1

May-13-13 FN
INTEGRAL CALCULUS
AND FOURIER SERIES
May-14-13 FN
1BMA2C2
ANALYTICAL
GEOMETRY OF 3D AND VECTOR CALCULUS
------------------------------------------------------------------------------------------SEMESTER : 3
May-10-13 AN

1BMA3C1

May-11-13 AN
1BMA3C2
EQUATIONS AND ITS APPLICATIONS

MODERN ALGEBRA
DIFFERENTIAL

------------------------------------------------------------------------------------------SEMESTER : 4
May-10-13 FN
SERIES
May-11-13 FN

1BMA4C1

SEQUENCES AND

1BMA4C2

LINEAR ALGEBRA

------------------------------------------------------------------------------------------*

FN = 10.00 AM TO 1.00 PM;


= 2.00 PM TO 5.00 PM

AN

PAGE NO: 8
FOR THOSE WHO JOINED 2011ONWARDS
COURSECODE : 122
PART: 3 & 4

B.Sc.,(PHYSICS)

------------------------------------------------------------------------------------------Date and
Subject
Title of the
Paper
Session
Code
Page 14

2011BATCH
------------------------------------------------------------------------------------------SEMESTER : 1
May-11-13 AN
1BPH1C1
MATTER AND ACOUSTICS
May-13-13 AN
1BPH1C2
RELATIVITY

PROPERTIES OF
MECHANICS AND

------------------------------------------------------------------------------------------SEMESTER : 2
May-11-13 FN
1BPH2C1
THERMAL AND
STATISTICAL PHYSICS
May-13-13 FN
1BPH2C2
ELECTRICITY,MAGNETISM AND ELECTROMAGNETISM
------------------------------------------------------------------------------------------SEMESTER : 3
May-10-13 AN
SPECTROSCOPY

1BPH3C1

OPTICS AND

------------------------------------------------------------------------------------------SEMESTER : 4
May-10-13 FN
1BPH4C1
ATOMIC AND
NUCLEAR PHYSICS
------------------------------------------------------------------------------------------*

FN = 10.00 AM TO 1.00 PM;


= 2.00 PM TO 5.00 PM

PAGE NO: 9
Page 15

AN

2011BATCH
FOR THOSE WHO JOINED 2011ONWARDS
COURSECODE : 123
PART: 3 & 4

B.Sc.,(ELECTRONICS)

------------------------------------------------------------------------------------------Date and
Subject
Title of the
Paper
Session
Code
------------------------------------------------------------------------------------------SEMESTER : 1
May-11-13 AN
1BEL1C1
AND SEMICONDUCTOR DEVICES

CIRCUIT ANALYSIS

------------------------------------------------------------------------------------------SEMESTER : 2
May-11-13 FN
1BEL2C1
PRINCIPLES AND APPLICATIONS

DIGITAL

------------------------------------------------------------------------------------------SEMESTER : 3
May-10-13 AN
APPLICATIONS

1BEL3C1

ICS AND ITS

------------------------------------------------------------------------------------------SEMESTER : 4
May-10-13 FN
1BEL4C1
ANALOG AND
DIGITAL COMMUNICATION
------------------------------------------------------------------------------------------Page 16

2011BATCH
* FN = 10.00 AM TO 1.00 PM;
= 2.00 PM TO 5.00 PM

AN

PAGE NO: 10
FOR THOSE WHO JOINED 2011ONWARDS
COURSECODE : 124
PART: 3 & 4

B.Sc.,(CHEMISTRY)

------------------------------------------------------------------------------------------Date and
Subject
Title of the
Paper
Session
Code
------------------------------------------------------------------------------------------SEMESTER : 1
May-11-13 FN

1BCH1C1

GENERAL CHEMISTRY

------------------------------------------------------------------------------------------SEMESTER : 2
May-11-13
CHEMISTRY
May-13-13
CHEMISTRY

FN
- I
FN
- I

1BCH2C1

INORGANIC

1BCH2C2

PHYSICAL

------------------------------------------------------------------------------------------SEMESTER : 3
May-10-13 AN
- I

1BCH3C1

ORGANIC CHEMISTRY

------------------------------------------------------------------------------------------Page 17

2011BATCH
SEMESTER :

May-10-13 FN
1BCH4C1
INORGANIC
CHEMISTRY - II
------------------------------------------------------------------------------------------*

FN = 10.00 AM TO 1.00 PM;


= 2.00 PM TO 5.00 PM

AN

PAGE NO: 11
FOR THOSE WHO JOINED 2011ONWARDS
COURSECODE : 125
PART: 3 & 4

B.Sc.,(BOTANY)

------------------------------------------------------------------------------------------Date and
Subject
Title of the
Paper
Session
Code
------------------------------------------------------------------------------------------SEMESTER : 1
May-13-13 AN
I

1BBO1C1

PLANT DIVERSITY -

------------------------------------------------------------------------------------------SEMESTER : 2
May-13-13 FN
1BBO2C1
II
May-14-13 FN
1BBO2C2
AND MICRO TECHNIQUES

PLANT DIVERSITY CYTOLOGY,ANATOMY

------------------------------------------------------------------------------------------Page 18

2011BATCH
SEMESTER :

May-10-13 AN
1BBO3C1
EMBRYOLOGY OF
ANGIOSPERMS AND PLANTS TISSUE CULTURE
------------------------------------------------------------------------------------------SEMESTER : 4
May-10-13 FN
1BBO4C1
BIOCHEMISTRY,
MOLECULAR BIOLOGY AND INSTRUMENTATION
------------------------------------------------------------------------------------------* FN = 10.00 AM TO 1.00 PM;
= 2.00 PM TO 5.00 PM

AN

PAGE NO: 12
FOR THOSE WHO JOINED 2011ONWARDS
COURSECODE : 126
PART: 3 & 4

B.Sc.,(ZOOLOGY)

------------------------------------------------------------------------------------------Date and
Subject
Title of the
Paper
Session
Code
------------------------------------------------------------------------------------------SEMESTER : 1
May-11-13 AN
INVERTEBRATES - I
May-13-13 AN
INVERTEBRATES - II

1BZO1C1

BIO DIVERSITY OF

1BZO1C2

BIO DIVERSITY OF

------------------------------------------------------------------------------------------Page 19

2011BATCH
SEMESTER :

May-11-13 FN
CHORDATES
May-13-13 FN
INSTRUMENTATION

1BZO2C1

BIODIVERSITY OF

1BZO2C2

CELL BIOLOGY AND

------------------------------------------------------------------------------------------SEMESTER : 3
May-10-13 AN
BIOLOGY & EVOLUTION

1BZO3C1

DEVELOPMENTAL

------------------------------------------------------------------------------------------SEMESTER : 4
May-10-13 FN
1BZO4C1
GENETICS AND
MOLECULAR BIOLOGY
------------------------------------------------------------------------------------------*

FN = 10.00 AM TO 1.00 PM;


= 2.00 PM TO 5.00 PM

AN

PAGE NO: 13
FOR THOSE WHO JOINED 2011ONWARDS
COURSECODE : 127
& 4

B.C.A

PART:

------------------------------------------------------------------------------------------Date and
Subject
Title of the
Paper
Session
Code
------------------------------------------------------------------------------------------Page 20

2011BATCH
SEMESTER :

May-11-13 AN

1BCA1C1

PROGRAMMING IN C

------------------------------------------------------------------------------------------SEMESTER : 2
May-11-13 FN
C++

1BCA2C1

PROGRAMMING IN

------------------------------------------------------------------------------------------SEMESTER : 3
May-10-13 AN
MANAGEMENT SYSTEMS

1BCA3C1

DATABASE

------------------------------------------------------------------------------------------SEMESTER : 4
May-10-13 FN

1BCA4C1

JAVA PROGRAMMING

------------------------------------------------------------------------------------------*

FN = 10.00 AM TO 1.00 PM;


= 2.00 PM TO 5.00 PM

AN

PAGE NO: 14
FOR THOSE WHO JOINED 2011ONWARDS
COURSECODE : 128
SCIENCE)/EVENING

B.Sc., (COMPUTER
PART: 3 & 4

------------------------------------------------------------------------------------------Page 21

2011BATCH
Subject

Date and
Title of the
Paper
Session
Code
------------------------------------------------------------------------------------------SEMESTER : 1
May-11-13 AN
AND DATA STRUCTURES

1BCE1C1

PROGRAMMING IN C

------------------------------------------------------------------------------------------SEMESTER : 2
May-11-13 FN
C++ AND ALGORITHMS

1BCE2C1

PROGRAMMING IN

------------------------------------------------------------------------------------------SEMESTER : 3
May-10-13 AN
MANAGEMENT SYSTEMS

1BCE3C1

DATABASE

------------------------------------------------------------------------------------------SEMESTER : 4
May-10-13 FN

1BCE4C1

JAVA PROGRAMMING

------------------------------------------------------------------------------------------*

FN = 10.00 AM TO 1.00 PM;


= 2.00 PM TO 5.00 PM

PAGE NO: 15
FOR THOSE WHO JOINED 2011ONWARDS
Page 22

AN

COURSECODE : 129
PART: 3 & 4

2011BATCH
B.Sc.,(I.T)

------------------------------------------------------------------------------------------Date and
Subject
Title of the
Paper
Session
Code
------------------------------------------------------------------------------------------SEMESTER : 1
May-11-13 AN
1BIT1C1
INFORMATION TECHNOLOGY

PRINCIPLES OF

------------------------------------------------------------------------------------------SEMESTER : 2
May-11-13 FN
AND DATA STRUCTURES

1BIT2C1

PROGRAMMING IN C

------------------------------------------------------------------------------------------SEMESTER : 3
May-10-13 AN
C++ AND ALGORITHMS

1BIT3C1

PROGRAMMING IN

------------------------------------------------------------------------------------------SEMESTER : 4
May-10-13 FN

1BIT4C1

JAVA PROGRAMMING

------------------------------------------------------------------------------------------*

FN = 10.00 AM TO 1.00 PM;


= 2.00 PM TO 5.00 PM

Page 23

AN

2011BATCH
PAGE NO: 16
FOR THOSE WHO JOINED 2011ONWARDS
COURSECODE : 130
PART: 3 & 4

B.Sc.,(MICRO BIOLOGY)

------------------------------------------------------------------------------------------Date and
Subject
Title of the
Paper
Session
Code
------------------------------------------------------------------------------------------SEMESTER : 1
May-11-13 AN
MICROBIOLOGY

1BMI1C1

GENERAL

------------------------------------------------------------------------------------------SEMESTER : 2
May-11-13 FN
1BMI2C1
MICROBIAL
PHYSIOLOGY
May-11-13 FN
1BMI2C1
MICROBIAL
PHYSIOLOGY & GENETICS (2012 ONWARDS)
------------------------------------------------------------------------------------------SEMESTER : 3
May-10-13 AN

1BMI3C1

IMMUNOLOGY

------------------------------------------------------------------------------------------SEMESTER : 4
Page 24

2011BATCH
May-10-13 FN
MICROBIOLOGY

1BMI4C1

MEDICAL

------------------------------------------------------------------------------------------*

FN = 10.00 AM TO 1.00 PM;


= 2.00 PM TO 5.00 PM

AN

PAGE NO: 17
FOR THOSE WHO JOINED 2011ONWARDS
COURSECODE : 131
PART: 3 & 4

B.Sc.,(BIO-CHEMISTRY)

------------------------------------------------------------------------------------------Date and
Subject
Title of the
Paper
Session
Code
------------------------------------------------------------------------------------------SEMESTER : 1
May-14-13 AN

1BBC1C1

BIOMOLECULES

------------------------------------------------------------------------------------------SEMESTER : 2
May-13-13 FN
BIOCHEMISTRY

1BBC2C1

ANALYTICAL

------------------------------------------------------------------------------------------SEMESTER : 3
Page 25

May-10-13 AN
May-11-13 AN
METABOLISM

2011BATCH
1BBC3C1

ENZYMOLOGY

1BBC3C2

INTERMEDIATORY

------------------------------------------------------------------------------------------SEMESTER : 4
May-10-13 FN

1BBC4C1

HUMAN PHYSIOLOGY

May-11-13 FN

1BBCE1A

BIOTECHNOLOGY

------------------------------------------------------------------------------------------*

FN = 10.00 AM TO 1.00 PM;


= 2.00 PM TO 5.00 PM

AN

PAGE NO: 18
FOR THOSE WHO JOINED 2011ONWARDS
COURSECODE : 132
B.Sc.,HOME
SCIENCE(NUTRITION FOOD SERVICE MGT. &
PART: 3 & 4

DIETETICS)

------------------------------------------------------------------------------------------Date and
Subject
Title of the
Paper
Session
Code
------------------------------------------------------------------------------------------SEMESTER : 1
May-11-13 AN

1BHF1C1

FOOD SCIENCE

-------------------------------------------------Page 26

2011BATCH
-----------------------------------------SEMESTER : 2
May-11-13 FN

1BHF2C1

HUMAN PHYSIOLOGY

------------------------------------------------------------------------------------------SEMESTER : 3
May-10-13 AN
NUTRITION

1BHF3C1

PRINCIPLES OF

------------------------------------------------------------------------------------------SEMESTER : 4
May-10-13 FN

1BHF4C1

DIET THERAPY - I

------------------------------------------------------------------------------------------*

FN = 10.00 AM TO 1.00 PM;


= 2.00 PM TO 5.00 PM

AN

PAGE NO: 19
FOR THOSE WHO JOINED 2011ONWARDS
COURSECODE : 136
PART: 3 & 4

B.Sc.,(GEOLOGY)

------------------------------------------------------------------------------------------Date and
Subject
Title of the
Paper
Session
Code
------------------------------------------------------------------------------------------Page 27

2011BATCH
SEMESTER :

May-13-13 AN

1BGE1C1

DYNAMIC GEOLOGY

May-14-13 AN

1BGE1C2

GEOMORPHOLOGY

------------------------------------------------------------------------------------------SEMESTER : 2
May-13-13 FN
1BGE2C1
GENERAL STRATIGRAPHY

PALAEONTOLOGY AND

------------------------------------------------------------------------------------------SEMESTER : 3
May-10-13 AN

1BGE3C1

CRYSTALLOGRAPHY

------------------------------------------------------------------------------------------SEMESTER : 4
May-10-13 FN

1BGE4C1

MINERALOGY

May-11-13 FN
STRATIGRAPHY

1BGE4C2

INDIAN

------------------------------------------------------------------------------------------*

FN = 10.00 AM TO 1.00 PM;


= 2.00 PM TO 5.00 PM

PAGE NO: 20
FOR THOSE WHO JOINED 2011ONWARDS
Page 28

AN

COURSECODE : 137
PART: 3 & 4

2011BATCH
B.Sc.,(SOFTWARE)

------------------------------------------------------------------------------------------Date and
Subject
Title of the
Paper
Session
Code
------------------------------------------------------------------------------------------SEMESTER : 1
May-11-13 AN
PROGRAMMING

1BSO1C1

UNIX AND C

------------------------------------------------------------------------------------------SEMESTER : 2
May-11-13 FN
C++ AND ALGORITHMS

1BSO2C1

PROGRAMMING IN

------------------------------------------------------------------------------------------SEMESTER : 3
May-10-13 AN

1BSO3C1

JAVA PROGRAMMING

------------------------------------------------------------------------------------------SEMESTER : 4
May-10-13 FN

1BSO4C1

VISUAL BASIC

------------------------------------------------------------------------------------------*

FN = 10.00 AM TO 1.00 PM;


= 2.00 PM TO 5.00 PM

Page 29

AN

2011BATCH
PAGE NO: 21
FOR THOSE WHO JOINED 2011ONWARDS
COURSECODE : 138
PART: 3 & 4

B.Sc., BIOTECHNOLOGY

------------------------------------------------------------------------------------------Date and
Subject
Title of the
Paper
Session
Code
------------------------------------------------------------------------------------------SEMESTER : 1
May-11-13 AN

1BBT1C1

BIOCHEMISTRY

------------------------------------------------------------------------------------------SEMESTER : 2
May-11-13 FN

1BBT2C1

MICROBIOLOGY

------------------------------------------------------------------------------------------SEMESTER : 3
May-10-13 AN

1BBT3C1

MOLECULAR BIOLOGY

------------------------------------------------------------------------------------------SEMESTER : 4
May-10-13 FN

1BBT4C1

GENETICS

-------------------------------------------------Page 30

2011BATCH
-----------------------------------------*

FN = 10.00 AM TO 1.00 PM;


= 2.00 PM TO 5.00 PM

AN

PAGE NO: 22
FOR THOSE WHO JOINED 2011ONWARDS
COURSECODE : 139
CLINICAL LAB TECHNOLOGY

B.Sc., MICROBIOLOGY AND


PART: 3 & 4

------------------------------------------------------------------------------------------Date and
Subject
Title of the
Paper
Session
Code
------------------------------------------------------------------------------------------SEMESTER : 1
May-11-13 AN
MICROBIOLOGY

1BMC1C1

GENERAL

------------------------------------------------------------------------------------------SEMESTER : 2
May-11-13 FN
BIOCHEMISTRY

1BMC2C1

CLINICAL

------------------------------------------------------------------------------------------SEMESTER : 3
May-10-13 AN
IMMUNOLOGY

1BMC3C1

CLINICAL

-------------------------------------------------Page 31

2011BATCH
-----------------------------------------SEMESTER : 4
May-10-13 FN
1BMC4C1
CLINICAL
PARASITOLOGY AND MYCOLOGY
------------------------------------------------------------------------------------------*

FN = 10.00 AM TO 1.00 PM;


= 2.00 PM TO 5.00 PM

AN

PAGE NO: 23
FOR THOSE WHO JOINED 2011ONWARDS
COURSECODE : 141
COMMUNICATION

B.Sc., ELECTRONICS AND


PART: 3 & 4

------------------------------------------------------------------------------------------Date and
Subject
Title of the
Paper
Session
Code
------------------------------------------------------------------------------------------SEMESTER : 1
May-13-13 AN
DEVICES & CIRCUITS

1BEC1C1

ELECTRONIC

------------------------------------------------------------------------------------------SEMESTER : 2
May-13-13 FN
1BEC2C1
ELECTRONICS AND LOGIC DESIGN

DIGITAL

-------------------------------------------------Page 32

2011BATCH
-----------------------------------------SEMESTER : 3
May-10-13 AN
BEC3C1
DESIGN WITH ANALOG ICs
May-11-13 AN
BEC3C2
ELECTRONICS AND LOGIC DESIGN

APPLICATIONS AND
DIGITAL

------------------------------------------------------------------------------------------SEMESTER : 4
May-10-13 FN
1BEC4C1
ANALOG,DIGITAL
AND MOBILE COMMUNICATION SYSTEM
------------------------------------------------------------------------------------------*

FN = 10.00 AM TO 1.00 PM;


= 2.00 PM TO 5.00 PM

AN

PAGE NO: 24
FOR THOSE WHO JOINED 2011ONWARDS
COURSECODE : 142
B.Sc., ZOOLOGY
(INDUSTRIAL MICROBIOLOGY)
PART:

3 & 4

------------------------------------------------------------------------------------------Date and
Subject
Title of the
Paper
Session
Code
------------------------------------------------------------------------------------------SEMESTER : 1
May-11-13 AN
INVERTEBRATES-I
May-13-13 AN

1BZI1C1

BIO DIVERSITY OF

1BZI1C2

BIO DIVERSITY OF

Page 33

2011BATCH
INVERTEBRATES-II
------------------------------------------------------------------------------------------SEMESTER : 2
May-11-13 FN
CHORDATES
May-13-13 FN
INSTRUMENTATION

1BZI2C1

BIODIVERSITY OF

1BZI2C2

CELL BIOLOGY AND

------------------------------------------------------------------------------------------SEMESTER : 3
May-10-13 AN
1BZI3C1
BIOLOGY AND EVOLUTION

DEVELOPMENTAL

------------------------------------------------------------------------------------------SEMESTER : 4
May-10-13 FN
1BZI4C1
GENETICS AND
MOLECULAR BIOLOGY
------------------------------------------------------------------------------------------*

FN = 10.00 AM TO 1.00 PM;


= 2.00 PM TO 5.00 PM

AN

PAGE NO: 25
FOR THOSE WHO JOINED 2011ONWARDS
COURSECODE : 151
PART: 3 & 4

B.Com., /B.Com.,Evening

------------------------------------------------------------------------------------------Date and
Subject
Title of the
Page 34

2011BATCH
Paper
Session
Code
------------------------------------------------------------------------------------------SEMESTER : 1
May-15-13 AN
ACCOUNTANCY - I
May-16-13 AN
ORGANISATION

1BCO1C1

ADVANCED

1BCO1C2

BUSINESS

------------------------------------------------------------------------------------------SEMESTER : 2
May-15-13 FN
ACCOUNTANCY - II
May-16-13 FN

1BCO2C1

ADVANCED

1BCO2C2

MARKETING

------------------------------------------------------------------------------------------SEMESTER : 3
May-10-13 AN
INSURANCE
May-11-13 AN

1BCO3C1

PRINCIPLES OF

1BCO3C2

BANKING THEORY

May-13-13 AN
STATISTICS
May-14-13 AN
ACCOUNTANCY - III

1BCO3C3

BUSINESS

1BCO3C4

ADVANCED

------------------------------------------------------------------------------------------SEMESTER : 4
May-10-13 FN
MANAGEMENT
May-11-13 FN
PRACTICE

1BCO4C1

PRINCIPLES OF

1BCO4C2

BANKING LAW AND

Page 35

2011BATCH
1BCO4C3

May-13-13 FN
BUSINESS
MATHEMATICS
May-14-13 FN
1BCO4C4
ADVANCED
ACCOUNTANCY - 1V
------------------------------------------------------------------------------------------*

FN = 10.00 AM TO 1.00 PM;


= 2.00 PM TO 5.00 PM

AN

PAGE NO: 26
FOR THOSE WHO JOINED 2011ONWARDS
COURSECODE : 152
PART: 3 & 4

B.Com(C.A.)

------------------------------------------------------------------------------------------Date and
Subject
Title of the
Paper
Session
Code
------------------------------------------------------------------------------------------SEMESTER : 1
May-15-13 AN
ACCOUNTANCY - I
May-16-13 AN
COMPUTER

1BCC1C1

ADVANCED

1BCC1C2

FUNDAMENTALS OF

------------------------------------------------------------------------------------------SEMESTER : 2
May-15-13 FN
ACCOUNTANCY - II
May-16-13 FN

1BCC2C1

ADVANCED

1BCC2C2

MS OFFICE

Page 36

2011BATCH
------------------------------------------------------------------------------------------SEMESTER : 3
May-10-13 AN

1BCC3C1

TALLY

May-11-13 AN

1BCC3C2

C PROGRAMMING

May-13-13 AN
STATISTICS
May-14-13 AN
ACCOUNTANCY - III

1BCC3C3

BUSINESS

1BCC3C4

ADVANCED

------------------------------------------------------------------------------------------SEMESTER : 4
May-10-13 FN
INTERNET
May-11-13 FN

1BCC4C1

E-COMMERCE AND

1BCC4C2

C++ PROGRAMMING

May-13-13 FN
1BCC4C3
ADVANCED
ACCOUNTANCY-IV
May-14-13 FN
1BCC4C4
BUSINESS
MATHEMATICS
------------------------------------------------------------------------------------------*

FN = 10.00 AM TO 1.00 PM;


= 2.00 PM TO 5.00 PM

AN

PAGE NO: 27
FOR THOSE WHO JOINED 2011ONWARDS
COURSECODE : 153
& 4

B.B.A

PART:

------------------------------------------------------------------------------------------Page 37

2011BATCH
Subject

Date and
Title of the
Paper
Session
Code
------------------------------------------------------------------------------------------SEMESTER : 1
May-15-13 AN
1BBA1C1
AND BANKING PRACTICES

ENTREPRENEURSHIP

------------------------------------------------------------------------------------------SEMESTER : 2
May-15-13 FN
MANAGEMENT

1BBA2C1

PRINCIPLES OF

------------------------------------------------------------------------------------------SEMESTER : 3
May-10-13 AN
1BBA3C1
BUSINESS
May-11-13 AN
1BBA3C2
BEHAVIOUR
May-13-13 AN
1BBA3C3
APPLICATIONS IN BUSINESS

ENVIRONMENT OF
ORGANISATIONAL
COMPUTER

------------------------------------------------------------------------------------------SEMESTER : 4
May-10-13 FN
1BBA4C1
OPERATIONS
MANAGEMENT
May-11-13 FN
1BBA4C2
MARKETING
MANAGEMENT
May-13-13 FN
1BBA4C3
COMPUTER
APPLICATIONS IN BUSINESS - II
May-14-13 FN
1BBA4C4
HUMAN RESOURCE
MANAGEMENT
-------------------------------------------------Page 38

2011BATCH
-----------------------------------------*

FN = 10.00 AM TO 1.00 PM;


= 2.00 PM TO 5.00 PM

AN

PAGE NO: 28
FOR THOSE WHO JOINED 2011ONWARDS
COURSECODE : 154
& 4

B.C.S

PART:

------------------------------------------------------------------------------------------Date and
Subject
Title of the
Paper
Session
Code
------------------------------------------------------------------------------------------SEMESTER : 1
May-14-13 AN
MANAGEMENT
May-15-13 AN
ACCOUNTING - I

1BCS1C1

MARKETING

1BCS1C2

FINANCIAL

------------------------------------------------------------------------------------------SEMESTER : 2
May-14-13 FN
ECONOMICS
May-15-13 FN
ACCOUNTING

1BCS2C1

MANAGERIAL

1BCS2C2

FINANCIAL

------------------------------------------------------------------------------------------SEMESTER : 3
May-10-13 AN

1BCS3C1
Page 39

COMPANY LAW AND

2011BATCH
SECRETARIAL PRACTICE - I
May-11-13 AN
1BCS3C2
ACCOUNTING
May-13-13 AN
1BCS3C3
MANAGEMENT

PARTNERSHIP
PRINCIPLES OF

------------------------------------------------------------------------------------------SEMESTER : 4
May-10-13 FN
1BCS4C1
SECRETARIAL PRACTICE - II
May-11-13 FN
1BCS4C2

COMPANY LAW AND


MODERN BANKING

May-13-13 FN
1BCS4C3
BUSINESS
STATISTICS
------------------------------------------------------------------------------------------*

FN = 10.00 AM TO 1.00 PM;


= 2.00 PM TO 5.00 PM

AN

PAGE NO: 29
FOR THOSE WHO JOINED 2011ONWARDS
COURSECODE : 158
PART: 3 & 4

B.A.(ECONOMICS)

------------------------------------------------------------------------------------------Date and
Subject
Title of the
Paper
Session
Code
------------------------------------------------------------------------------------------SEMESTER : 1
May-13-13 AN
I

1BAE1C1
Page 40

MICRO ECONOMICS -

May-14-13 AN
STATISTICS - I

2011BATCH
1BAE1C2

BUSINESS

------------------------------------------------------------------------------------------SEMESTER : 2
May-13-13 FN
II
May-14-13 FN
STATISTICS - II

1BAE2C1

MICRO ECONOMICS -

1BAE2C2

BUSINESS

------------------------------------------------------------------------------------------SEMESTER : 3
May-10-13 AN
MATHEMATICS - I
May-11-13 AN
DEVELOPMENT

1BAE3C1

BUSINESS

1BAE3C2

ENTREPRENEURSHIP

------------------------------------------------------------------------------------------SEMESTER : 4
May-10-13 FN
ECONOMICS
May-11-13 FN
MATHEMATICS - II

1BAE4C1

AGRICULTURAL

1BAE4C2

BUSINESS

PAGE NO: 1
FOR THOSE WHO JOINED 2011ONWARDS
 ALLIED PAPERS

------------------------------------------------------------------------------------------Date and
Subject
Title of the
Page 41

2011BATCH
Paper
Session
Code
------------------------------------------------------------------------------------------May-18-13 AN
1BTAA1
ALLIED-1 :
IDHAZHIYAL
May-18-13 AN
IDHAZHIYAL

1BTASA1

ALLIED-1 :

May-18-13 FN
VARALARUM PANPADUM

1BTASA2

ALLIED: TAMILAGHA

May-20-13 AN
KALAI

1BTASA3

ALLIED: KOYIL

May-20-13 FN

1BTASA4

KANINI IEYIAL

------------------------------------------------------------------------------------------May-18-13 AN
1BLT1A1
ALLIED-1 :
THAMIZHAGA VARALARUM PANPADUM
May-20-13 AN
IDHAZHIYAL

1BLT1A2

ALLIED-2 :

May-18-13 FN
1BLT2A3
VARALARUM PANPADUM - II

ALLIED: TAMILAGHA

May-20-13 FN
ALUMAITHIRAN

ALLIED:

1BLT2A4

------------------------------------------------------------------------------------------May-18-13 AN
1BENA1
ALLIED-1 :
BACKROUND TO THE STUDY OF BRITISH LITERATURE
May-18-13 FN
GRAMMAR

1BENA2
Page 42

ALLIED: REMEDIAL

2011BATCH
May-20-13 AN
PHONETICS

1BENA3

INTRODUCTION TO

May-20-13 FN
COMMUNICATION

1BENA4

WRITTEN

------------------------------------------------------------------------------------------May-18-13 AN
1BEVA1
REMEDIAL GRAMMAR
May-18-13 FN

1BEVA2

ALLIED: PHONETICS

May-20-13 AN
1BEVA3
ALLIED:
BACKGROUND TO THE STUDY OF BRITISH LITERATURE
May-20-13 FN
WRITING IN ENGLISH

1BEVA4

ALLIED : INDIAN

------------------------------------------------------------------------------------------May-18-13 AN
1BPSA1
ALLIED-1 :
PANCHAYATI RAJ SYSTEM IN INDIA
May-18-13 FN
1BPSA2
ALLIED:
CONSTITUTIONAL DEVELOPMENT OF INDIA
May-20-13 AN
IDEOLOGIES

1BPSA3

ALLIED: POLITICAL

May-20-13 FN
INDIAN CONSTITUTION

1BPSA4

INTRODUCTION TO

------------------------------------------------------------------------------------------May-18-13 AN
1BHIA1
ALLIED-1 :
INTRODUCTION TO TOURISM
Page 43

2011BATCH
May-18-13 FN
1BHIA2
CONSTITUTION OF INDIA

ALLIED:

May-20-13 AN
OF INDIA

SOCIAL REFORMERS

1BHIA3

May-20-13 FN
1BHIA4
IN INDIA (1800-1947 A.D)

NATIONAL MOVEMENT

------------------------------------------------------------------------------------------May-18-13 AN
1BCEA1/
ALLIED -1 :
DIGITAL ELECTRONICS
1BCESA1
May-18-13 FN
1BCEA2
ALLIED:
PRINCIPLES OF INFORMATION TECHNOLOGY
May-20-13 AN
(THEORY & LAB)

1BCEA3

PROGRAMMING IN C

May-20-13 FN
PROGRAMMING IN C++

1BCEA4

ALLIED :

------------------------------------------------------------------------------------------May-21-13 AN
1BPHA1
ALLIED-1 :
PROPERTIES OF MATTER, THERMAL PHYSICS AND OPTICS
May-21-13 FN
1BPHA2
ALLIED:
ELECTRICITY,ELECTRONICS,ATOMIC AND NUCLEAR PHYSICS
May-22-13 AN
1BPHA3
BASIC DISCRETE
ELECTRONICS AND APPLICATIONS OF ELECTRONIC AND
DEVICES
May-22-13 FN
1BPHA4
ICS, SIMPLE
CONTROL SYSTEMS AND COMMUNICATION ELECTRONICS
------------------------------------------------------------------------------------------May-18-13 AN
1BMAA1
ANCILLARY
MATHEMATICS-I
Page 44

2011BATCH
May-18-13 FN
MATHEMATICS-II

1BMAA2

ANCILLARY

May-20-13 AN
May-20-13 AN

1BMAA3
1BMASA1

STATISTICS - I
STATISTICS - I

May-20-13 FN
PROGRAMMING

1BMAA4

LINEAR

May-20-13 FN
PROGRAMMING

1BMASA4

LINEAR

------------------------------------------------------------------------------------------May-23-13 AN
1BCHA1
ALLIED-1 :
GENERAL CHEMISTRY-I
May-23-13 FN
CHEMISTRY-II

1BCHA2

ALLIED : GENERAL

May-24-13 AN
CHEMISTRY- III

1BCHA3

GENERAL

May-24-13 FN
- I

1BCHA4

APPLIED CHEMISTRY

------------------------------------------------------------------------------------------May-18-13 FN
1BELSA2
ALLIED: ANCILLARY
MATHEMATICS - II
May-20-13 FN
1BELSA4
ALLIED
:PROGRAMMING IN C++
May-18-13 AN
1BELA1
PRINCIPLES OF
ELECTRONICS (ANALOG AND DIGITAL)
May-18-13 FN
1BELA2
ALLIED:
PRINCIPLES OF COMMUNICATION SYSTEMS
May-20-13 AN
1BELA3
ANALOG
ELECTRONICS
Page 45

2011BATCH
May-20-13 FN
1BELA4
ELECTRONICS AND LOGIC DESIGN

DIGITAL

------------------------------------------------------------------------------------------May-18-13 FN
1BCESA2
ALLIED:
MICROPROCESSORS AND INTERFACING
May-20-13 AN
1BCESA3
RESOURCE
MANAGEMENT TECHNIQUES
May-20-13 FN
1BCESA4
COMPUTER ORIENTED
NUMERICAL METHODS
May-18-13 AN
1BCE1A1
ALLIED : OFFICE
AUTOMATION
------------------------------------------------------------------------------------------May-18-13 AN
1BZIA1
ALLIED-1 :
GENERAL AND APPLIED ZOOLOGY
May-18-13 FN
CONCEPTUAL ZOOLOGY

1BZIA2

ALLIED:

May-20-13 AN
OF BIOMOLECULES

1BZOSA1/

ALLIED: CHEMISTRY

1BZISA1
May-20-13 FN
1BZISA2/
ALLIED:
BIOENERGETICS & INSTRUMENTATION
1BZOSA2
May-18-13 AN
1BZISA3
FOOD MICROBIOLOGY
------------------------------------------------------------------------------------------May-18-13 AN
1BZOA1
ALLIED-2 :
GENERAL AND APPLIED ZOOLOGY
May-18-13 FN
CONCEPTUAL ZOOLOGY
May-18-13 AN

1BZOA2

ALLIED:

1BZOSA3

FOOD MICROBIOLOGY

May-18-13 FN

1BZOSA4/

FOOD PRESERVATION

Page 46

2011BATCH
1BZISA4
------------------------------------------------------------------------------------------May-18-13 AN
1BBOA1
ALLIED-1 : PLANT
DIVERSITY, PLANT PATHOLOGY AND INTERNAL MORPHOLOGY
May-18-13 FN
1BBOA2
ALLIED: CELL
BIOLOGY AND PLANT TISSUE CULTURE
May-20-13 AN
1BBOA3
TAXONOMY OF
ANGIOSPERMS, ECONOMIC BOTANY,EMBRYOLOGY OF
ANGIOSPERMS
May-20-13 FN
1BBOA4
PLANT PHYSIOLOGY
AND ENVIRONMENTAL BIOLOGY
------------------------------------------------------------------------------------------May-18-13 AN
1BCA1A1/
ALLIED -1 :
DISCRETE MATHEMATICS
1BCASA1
May-20-13 AN
1BCA1A2/
ALLIED -2 :
COMPUTER FUNDAMENTALS
1BCAA1
May-18-13 FN
1BCAA2
ALLIED: OFFICE
AUTOMATION
May-20-13 FN
1BCASA2
MANAGEMENT TECHNIQUES

ALLIED: RESOURCE

May-21-13 AN
1BCASA3
ACCOUNTING
PRINCIPLES AND COMPUTER APPLICATIONS
May-21-13 FN
1BCASA4
COST AND
MANAGEMENT ACCOUNTING
------------------------------------------------------------------------------------------May-18-13 AN
1BITSA1/
ALLIED -1 :
DISCRETE MATHEMATICS
1BIT1A1
May-18-13 FN
1BITSA2
ALLIED:
OPERATIONS RESEARCH
Page 47

2011BATCH
May-20-13 AN
1BITSA3
ALLIED - III
ACCOUNTING PRINCIPLES AND COMPUTER APPLICATIONS
May-20-13 FN
1BITSA4
E - COMMERCE
May-18-13 FN
OFFICE AUTOMATION

1BIT1A2

ALLIED -2 :

1BITA1
May-18-13 FN
1BITA2
ALLIED:
PRINCIPLES OF INFORMATION TECHNOLOGY
May-20-13 AN
C++

1BITA3

PROGRAMMING IN

May-18-13 FN
1BITA4
ALLIED :
PROGRAMMING IN JAVA
------------------------------------------------------------------------------------------May-20-13 FN
1BMIA4
MEDICAL
MICROBIOLOGY
------------------------------------------------------------------------------------------May-18-13 AN
1BBCA1
ALLIED-1 :
GENERAL CHEMISTRY(BIOCHEMISTRY)
May-18-13 FN
CHEMISTRY

1BBCA2

ALLIED: ORGANIC

May-20-13 AN

1BBCA3

GENERAL BIOLOGY

May-20-13 FN
1BBCA4
CELL BIOLOGY AND
GENETICS
------------------------------------------------------------------------------------------May-18-13 AN
1BHFA1
BASIC CHEMISTRY
May-18-13 FN
CHEMISTRY-II

1BHFA2
Page 48

ALLIED: GENERAL

2011BATCH
May-20-13 AN
BIOCHEMISTRY

1BHFA3

NUTRITIONAL

May-20-13 FN

1BHFA4

MICROBIOLOGY

------------------------------------------------------------------------------------------May-18-13 AN
1BSOSA1/
ALLIED -1 :
DISCRETE MATHEMATICS
1BSOA1
May-18-13 FN
1BSOA2/
ALLIED:
OPERATIONS RESEARCH
1BSOSA2
May-20-13 AN
1BSOSA3
ALLIED-III
ACCOUNTING PRINCIPLES AND PRACTICE
May-20-13 FN
1BSOSA4
MANAGEMENT ACCOUNTING

COST AND

------------------------------------------------------------------------------------------May-18-13 FN
BIOLOGY

1BBT2A1

DEVELOPMENTAL

------------------------------------------------------------------------------------------May-20-13 AN
1BMC1A1
CELL BIOLOGY
May-20-13 FN
1BMC2A1
BODY FLUID
ANALYSIS AND CLINICAL TEST REPORTING
------------------------------------------------------------------------------------------May-18-13 AN
1BCCA1
ALLIED-1 :
BANKING THEORY
Page 49

2011BATCH
1BCCA2

ALLIED : BANKING

May-20-13 AN
MANAGEMENT

1BCCA3

PRINCIPLES OF

May-20-13 FN

1BCCA4

SERVICE MARKETING

May-18-13 FN
- LAW AND PRACTICE

------------------------------------------------------------------------------------------May-20-13 AN
1BBA1A1
ALLIED-1 :
FINANCIAL ACCOUNTING
May-20-13 FN
1BBA1A2
:MANAGERIAL ECONOMICS
May-18-13 AN
1BBAA3/
ACCOUNTING
1BBA2A1
May-18-13 FN
1BBAA4/
LAW
1BBA2A2
May-21-13 AN
1BBA3A1
STATISTICS

ALLIED-2

May-21-13 FN
MATHEMATICS

BUSINESS

1BBA4A1

ALLIED: COST
ALLIED: BUSINESS
BUSINESS

------------------------------------------------------------------------------------------May-20-13 AN
1BCSA1
ALLIED-1 :
TOURISM MARKETING
May-20-13 FN
1BCSA2
ACCOUNTANCY FOR BEGINNERS

ALLIED:

May-18-13 AN
FOR COMMAN MAN

1BCSA3

ALLIED-3: LAWS

May-18-13 FN

1BCSA4

HUMAN RIGHTS

Page 50

2011BATCH
------------------------------------------------------------------------------------------May-18-13 AN
1BCOA1
ALLIED-1 :
BUSINESS ECONOMICS-I
May-18-13 FN
ECONOMICS-II

1BCOA2

ALLIED : BUSINESS

May-20-13 AN
PRACTICE-I

1BCOA3

SECRETARIAL

May-20-13 FN
1BCOA4
SECRETARIAL
PRACTICS - II
------------------------------------------------------------------------------------------May-20-13 AN
1BAEA1
ALLIED-1 :
FINANCIAL ACCOUNTING-I
May-20-13 FN
1BAEA2
FINANCIAL ACCOUNTING-II

ALLIED :

May-20-13 AN
ORGANIZATION

1BAEA3

BUSINESS

May-20-13 FN
MANAGEMENT

1BAEA4

ADVERTISEMENT

------------------------------------------------------------------------------------------*

FN = 10.00 AM TO 1.00 PM;


= 2.00 PM TO 5.00 PM

PAGE NO: 2
FOR THOSE WHO JOINED 2011ONWARDS
 PART 4 SUBJECTS

Page 51

AN

2011BATCH
------------------------------------------------------------------------------------------Date and
Subject
Title of the
Paper
Session
Code
------------------------------------------------------------------------------------------May-04-13 FN
1BES2
ENVIRONMENTAL
STUDIES
------------------------------------------------------------------------------------------* FN = 10.00 AM TO 1.00 PM;
AN
= 2.00 PM TO 5.00 PM

Page 52