Вы находитесь на странице: 1из 11

Hard to play La Leyenda Del Hada Y El Mago?

Improve your skills through


simple video lessons

Tiempo: 4/4
clave: Mi menor
afinacion: 4-40 (standart)

Legenda

= Armonicos

/ = Arrastres

~ = Vibratos

p = Lidago descendente o Pull off

__3__ = Trecillos

h = Lidado ascendente o Hammer on

b= estiradas o bends

r = Soltar la estirada

x = Silencio de cuerda

tr = Mover la pua rapido y continuo (tremolo)

o sordina

t = tapping

intro
|----------------------------------------------------------------------------|
|----------------------------------------------------------------------------|
|----------------------------------------------------------------------------|
|----------------------------------------------------------------2-----------|
|-----------------------------------------------------------2-3-5-5-3-2------|
|[3-2-0-0-0-0-3-2-0-0-0-0-3-2-0-5-3-2-3-2-0-0-0-0]x4--2-3-5------------5-3-2-|
P.M......................................................................

|--------------------------------------------------------------------------------------|
|--------------------------------------------------------------------------------------|
|--------------------------------------------------------------------------------------|
|--------------------------------------------------------------------------------------|
|7-7-7-7-7-7-7-7-7-7-5-5-5-5-5-5-5-5-5-5-5-5-7-7-7-7-7-7-7-7-7-7-7-7-2-2-2-2-22-2-2-2-|
|--------------------------------------------------------------------------------------|
P.M......................................................................

|---------------------------------------------------------------------------|
|---------------------------------------------------------------------------|
|---------------------------------------------------------------------------|
|---------------------------------------------------------------------------|
|---------------------------------------------------------------------------|
|-2--2-0-------------------------5-5-5-5-5-5-5-5-5-5-5-5-3-3-3-3-3-3-0-0-0-0|
|--------3-3-3-3-3-3-3-3-3-3-3-3--------------------------------------------|
P.M.......................................................................

|---------------------------------------------------------------------------|
|---------------------------------------------------------------------------|
|---------------------------------------------------------------------------|
|---------------------------------------------------------------------------|
|-0-0-7~--10-9----7-7-7-7-7-7-7-7-7-7-7-7-5-5-5-5-5-5-5-5-5-5-5-5-7-7-7-7-7-|
|---------8--7--------------------------------------------------------------|
P.M. .........................................................

|---------------------------------------------------------------------------|
|---------------------------------------------------------------------------|
|---------------------------------------------------------------------------|
|---------------------------------------------------------------------------|
|---------------------------------------------------------------------------|
|-7-7-7-7-7-7-7-2-2-2-2-2-2-2-2-2-2--2-0-------------------------5-5-5-5-5-5|
|----------------------------------------3-3-3-3-3-3-3-3-3-3-3-3------------|
P.M.............................. .......................................

|----------------------------------------|
|----------------------------------------|
|----------------------------------------|
|----------------------------------------|
|-5-5-5-5-5-5-3-3-3-3-3-3-0-0-0-0-0-7~---|
|----------------------------------------|
P.M..............................

'y es que el sabia'

'nunca debia salir de su destino'

|----------------------------------------------------------------------------|
|----------------------------------------------------------------------------|
|----------------------------------------------------------------------------|
|--5---9---7-----------------------------------------------------------------|
|--5---9---7-----------------------------------------------------------------|
|--3---7---5--------------5-----5-----9--------------------------------------|
|-------------------------3--4--7--6--7--------------------------------------|

'si alguien te tiene' esta parte va por octavas


|-------------------------------------------------------------------------------------|
|-------------------------------------------------------------------------------------|
|-8---9-7-5-9-7-5-4-7-5-4-------------------------------------------------5-5-5-4-4-4-|
|---------------------------8--4------------------------------5-5-5-4-4-4-------------|
|-6---7-5-3-7-5-3-2-5-3-2-------------2-2-2-1-1-1-3-3-3-2-2-2-------------------------|
|---------------------------6--2------------------------------------------------------|

repite todo desde la intro una vez mas

Solo: Bueno aca vamos a explicar algunas cosas sobretodo en los barridos
que es puede
llegar a complicar al que no los sabe hacer bien entonces: A: pua arriba,
B: pua abajo

A AAAA BA BBBB B ABAB


|-12p7------------------------------------|
|------8-------------------8------8p7-----|
|--------9---------------9--8h11-8---8-9~-| x2
|----------9-----------9------------------|
|------------10-7-9-10--------------------|
|-----------------------------------------|
P.M............ P.M............

|14t-7h11-14t-7h11-14t-7h11-14t-7h11-15t-7h12-15t-7h12-15t-7h12-15t7h12----|
|---------------------------------------------------------------------------|

|---------------------------------------------------------------------------|
|---------------------------------------------------------------------------|
|---------------------------------------------------------------------------|
|---------------------------------------------------------------------------|

|-17t-10h14-17t-10h14-17t-10h14-17t-10h14-19t-10h15-19t-10h15-19t10h15-19t-10h15-|
|---------------------------------------------------------------------------------|
|---------------------------------------------------------------------------------|
|---------------------------------------------------------------------------------|
|---------------------------------------------------------------------------------|
|---------------------------------------------------------------------------------|

estas son triadas


|-20p17---17p14---19p15---15p12---15p12---14p11----12~----------------------|
|------17------15------15------13------12------12---------------------------|
|---------------------------------------------------------------------------|
|---------------------------------------------------------------------------|
|---------------------------------------------------------------------------|
|---------------------------------------------------------------------------|
ahora repite todo desde el tapping

|-12-14-15--14b15r14--12-14--12-14-15-12-14-15-14-15-17-14-15-17-19b20r19--|
|---------------------------------------------------------------------------|
|---------------------------------------------------------------------------|

|---------------------------------------------------------------------------|
|---------------------------------------------------------------------------|
|---------------------------------------------------------------------------|
A ABBB
|-17-19---19b20r19-17------------------18p15------15------------------19b21-|
|---------------------20-19-17-19--17-------17--17-----15b17---17b19--------|
|---------------------------------------------18----------------------------|
|---------------------------------------------------------------------------|
|---------------------------------------------------------------------------|
|---------------------------------------------------------------------------|

|--------------------14-16-14-13--------------------------------------------|
|-17b19--17b19--14-15------------14-15-14-12--------------------------------|
|--------------------------------------------11-13-11-10--------------------|
|--------------------------------------------------------11-12-11-9---------|
|-------------------------------------------------------------------9~------|
|---------------------------------------------------------------------------|
B B B B B A A A A A

A BB

A BB

A BB

|---------------9-14p9-----------------13p10--10--16p13--13--19p16--16------|
|------------10--------10-------------------12---------15---------18--------|
|---------11--------------11------------------------------------------------|
|------11--------------------11---------------------------------------------|
|-9h12--------------------------12p9----------------------------------------|
|---------------------------------------------------------------------------|
A A A B B B

A A A B B A

|-21b22r21p17---------------------------------19p16-------------------------|

|------------19----------17--15b17r15-14-15~-------17--------------14b15r14-|
|---------------18----18------------------------------16----16-19-----------|
|------------------19------------------------------------18-----------------|
|---------------------------------------------------------------------------|
|---------------------------------------------------------------------------|
A B B

A B B

A B B

ABB

|-------------14-16-17-19b21--20p17--17--17p14--14--14p11--11--11p8--8------|
|-12-14~---14----------------------19---------16---------13--------10-------|
|---------------------------------------------------------------------------|
|---------------------------------------------------------------------------|
|---------------------------------------------------------------------------|
|---------------------------------------------------------------------------|
esta parte es la mas rapida yo la hago en tiempo de fusa (16) pero se puede
hacer
en semicorcheas (8) tambien combiene separar los compases para poder
hacerla mejor
yo no tuve tiempo de hacerlo si alguien tiene una duda o no le sale por favor
mandeme un mail
|-19b21r19--19b21r19--19-21-19-17----17-19-21-19-17----17-19-21-19-17--1617-|
|---------------------------------19----------------19-----------------------|
|----------------------------------------------------------------------------|
|----------------------------------------------------------------------------|
|----------------------------------------------------------------------------|
|----------------------------------------------------------------------------|

|-19-17-16----------------------------13-14-16-14-13----------------13-14-16-|

|----------14-15-18-15-14-15-18-15-14----------------15-14-12-14-15----------|
|----------------------------------------------------------------------------|
|----------------------------------------------------------------------------|
|----------------------------------------------------------------------------|
|----------------------------------------------------------------------------|

|-17-16-14-16-14-13-----------------------------------------------------------|
|-------------------------------------------------------------10------10-12---|
|-------------------14-16-14-13-14-13-11-11-13-11-10-10-11-13----11-13--------|
|-----------------------------------------------------------------------------|
|-----------------------------------------------------------------------------|
|-----------------------------------------------------------------------------|

|---------------------10-------10-13----10-13-14-10-13-14-13-10-13-14-16-14--|
|---10-12-14-10-12-14----12-14-------14--------------------------------------|
|-13-------------------------------------------------------------------------|
|----------------------------------------------------------------------------|
|----------------------------------------------------------------------------|
|----------------------------------------------------------------------------|

|-13-14-16-17-16-14-16-17-19-17-16--19b21r19-17------------------------------|
|-----------------------------------------------19b21-19b21-19b21r19~--------|
|----------------------------------------------------------------------------|
|----------------------------------------------------------------------------|
|----------------------------------------------------------------------------|

|----------------------------------------------------------------------------|

A BB A BB, etc todos iguales


|-5p2-2-5p2-2-4p1-1-4p1-1-7p4-4-7p4-4-5p2-2-5p2-2-9p5-5-9p5-5-7p4-4-7p44----|
|----2-----2-----2-----2-----6-----6-----2-----2-----5-----5-----5-----5-----|
|----------------------------------------------------------------------------|
|----------------------------------------------------------------------------|
|----------------------------------------------------------------------------|
|----------------------------------------------------------------------------|

|-10p7-7-10p7-7-9p5-5-9p5-5-12p9--9-12p9--9-14p10--10-14p10--10-14p11-11----|
|-----9------9-----5-----5------10------10-------10--------10--------12------|
|----------------------------------------------------------------------------|
|----------------------------------------------------------------------------|
|----------------------------------------------------------------------------|
|----------------------------------------------------------------------------|

|-16p12--12-16p12--12-16p13--13-16p13--13-17p14---10p7----------------------|
|------12--------12--------14--------14--------14------7--10p7--------------|
|--------------------------------------------------------------7p4---4b6~---|
|------------------------------------------------------------------4--------|
|---------------------------------------------------------------------------|
|---------------------------------------------------------------------------|

A BB, etc
|-10p7-7-13p10--10-10p7-7-13p10--10-16p13--13-16p13--13--19b21r1917---------|
|-----9-------12-------9-------12--------15--------15----------------19b21---|
|----------------------------------------------------------------------------|
|----------------------------------------------------------------------------|
|----------------------------------------------------------------------------|
|----------------------------------------------------------------------------|
B B BBB A AAAA
|------------------------------------------------------7-12p7----------------|
|-19b21-19b21-19b21----7----7-9-10--7----------------8--------8--------10b12-|
|----------------------9b11---------9b11-----------9------------9------------|
|------------------------------------------------9----------------9----------|
|-------------------------------------------7h10--------------------10-------|
|----------------------------------------------------------------------------|

esta parte tambien es muy rapida, en fusa sale mejor yo creo que el la hace
asi
conviene aprendersela de memoria y practicarla primero lento y despues ir
haciendola
mas rapidoy sino te conviene improvisarla es en la escala de mi menor.
|-15p14p12-15-14-12-15-14-12-12-14-15-12-17-12-15-14-12-14-15-12-17-1215-14-|
|----------------------------------------------------------------------------|
|----------------------------------------------------------------------------|
|----------------------------------------------------------------------------|
|----------------------------------------------------------------------------|
|----------------------------------------------------------------------------|

|-14-15-17-15-14-15-17-19-17-15-17-19-20-19-17-15-19-17-15-14-17-15-1412-15-|
|----------------------------------------------------------------------------|
|----------------------------------------------------------------------------|
|----------------------------------------------------------------------------|
|----------------------------------------------------------------------------|
|----------------------------------------------------------------------------|

|-14-12-10-14-12-10-8-12-10-8-12-10-8----------------------------------------|
|-------------------------------------12-10-9--------------------------------|
|---------------------------------------------11-9-7-------------------------|
|----------------------------------------------------10-9-7------------------|
|-----------------------------------------------------------10-9-7---7b9r7~--|
|----------------------------------------------------------------------------|
BBB AB

A B

|-------7-12-11--11h12p11p8-----------12-14-15-17-19-20-22b24r22~~-----------|
|-----8---------------------10-----12----------------------------------------|
|---9--------------------------9---------------------------------------------|
|----------------------------------------------------------------------------|
|----------------------------------------------------------------------------|
|----------------------------------------------------------------------------|