Вы находитесь на странице: 1из 38

Intro. (two gtrs.

):
(Gtr. II shown on right)
E|-14-15h17p15-17b(18)r(17)-17b(18)r(17)-17\15-15-17\15-15-9\7-7------------|
B|-16-17h19p17-19b(20)r(19)-19b(20)r(19)-19\17-17-19\17-17-------12\10|7----|
G|--------------------------------------------------------------------------|
D|--------------------------------------------------------11\9-9------------|
A|--------------------------------------------------------------------------|
E|--------------------------------------------------------------------------|
E|-------------------------------------------------------------------|
B|-8-10|7-12-10|7\8|5-8|5-10|7\8|5-8|5-/12-12-12-12\10|7-8-10|7-12|8-|
G|-9-------9---------------------------------------------9-----------|
D|---------------------------------------9-10--9---------------------|
A|-------------------------------------------------------------------|
E|-------------------------------------------------------------------|
E|----------------------------------------------------------------------|
B|-10|7\8|5-8|5-10|7\8|5-8|5-\0-4-5h7p5-7-(7)b(8)r(7)-10|7\5-5-10|7\5-5-|
G|----------------------------------------------------------------------|
D|----------------------------------------------------------------------|
A|----------------------------------------------------------------------|
E|----------------------------------------------------------------------|
Tempo=182
Rhy. Fig. 1
play three times
E|-----------------|---------------------------------------------------|
B|-----------------|*-------------------------------------------------*|
G|-----------------|*-------------------------------------------------*|
D|-2-------------2-|-------------------3-------------------------------|
A|---------3-4-5---|-2--2--2-3-2--2--2---2--2--2--2-3-2--2-------3-4-5-|
E|---2-3-4---------|---------------------------------------2-3-4-------|
E|--------------------------------------|
B|--------------------------------------|
G|-------------------3------------------|
D|-2--2--2-3-2--2--2---2-5--5-5-5---4-4-|
A|-----------------------5--5-5-5---4-4-|
E|-----------------------3--3-3-3-0-2-2-|
play four times
E|---------------------------------------------------|
B|*-------------------------------------------------*|
G|*------------------3------------------------------*|
D|-2--2--2-3-2--2--2---2--2--2--2-3-2--2-------3-4-5-|
A|---------------------------------------2-3-4-------|
E|---------------------------------------------------|
Rhy. Fig. 2 (play 4 times)
|-------------------------------|
|*-----------------------------*|
|*-----------------------------*|
|-------------------------------|
|-------------------------------|
|-0-0-0-0-0-0-6-0-0-7-6-3-------|
"Opposition, contradiction" etc.
Tempo=128
Rhy. Fig. 3
E|------------------------------------------------------|
B|*-----------------------------------------------------|
G|*---------------------------------------------------8-|

D|-------2-------------3-2----------------2-----------8-|
A|---0-1-----------0-1----------------0-1-------------6-|
E|-0-------0-0-0-0---------0-0-0-0--0-------0-0-0-0-6---|
E|------------------------------------------------------| (End Fig. 3)
B|-----------------------------------------------------*|
G|--------------------3------------------------------8-*|
D|-------2---------2----2----------------2-----------8--|
A|---0-1-------------1---------------0-1-------------6--|
E|-0-------0-0-0-0--------0-0-0-0--0-------0-0-0-0-6----|
Solo:
t = tap ^ = bend

\/= use tremolo bar

<>= harmonics

|---------------------------------------------|
|*--------------------------------------------|
|*--------------------------------------------|
|------7-9-------7-9-------7-9--10/7--9h10p9--|
|-10/7-9-10-10/7-9-10-10/7-9-10------10h12p10-|
|---------------------------------------------|
|-------------------------------------------------|
|------------------------------------------------*|
|----------------7-9-------7-9--11--9h11p9-------*|
|------7-9-------9-10-10/7-9-10-12-10h12p10-9--7--|
|-10/7-9-10-10/7----------------------------10-9--|
|-------------------------------------------------|
|-------------------------------------------|
|-------------------------------------------|
|------7-9-------7-9-------7-9--11--9h11p9--|
|-10/7-9-10-10/7-9-10-10/7-9-10-12-10h12p10-|
|-------------------------------------------|
|-------------------------------------------|
|------------------------------------------|
|----------------7-8----7-8-10-8h10p8-7----|
|------7-9-------7-9-9--7-9-11-9h11p9-7-9--|
|-10/7-9-10-10/7-----10-----------------10-|
|------------------------------------------|
|------------------------------------------|
|-----------------------------------------------7--------7-8--7h8p7----------|
|----7-8----7-8----7-8-10-8h10p8----7-8----10/7-8-8-10/7-8-10-8h10p8-8-10/7--|
|-9--7-9-9--7-9-9--7-9-11-9h11p9-9--7-9-9---------9------------------9-------|
|-10-----10-----10---------------10-----10-----------------------------------|
|----------------------------------------------------------------------------|
|----------------------------------------------------------------------------|
|-------------------------------7-8-8-7----7---------------------------------|
|-8---7-8---7-8---7-8---7-8---7---------10---10-8-10-8-7-8-7---7-------------|
|-9/9-----9-----9-----9-----9--------------------------------9---9-7-9-7-6-7-|
|----------------------------------------------------------------------------|
|----------------------------------------------------------------------------|
|----------------------------------------------------------------------------|
|---------------------------------------7-9-7h9p7----7-9-10-12-12|10-9-7----7-|
|--------------------7-8-7h8p7---7-8-11-----------11---------------------11---|
|6-----6h7p6---6-7-9-----------9----------------------------------------------|

|--7-9-------9----------------------------------------------------------------|
|-----------------------------------------------------------------------------|
|-----------------------------------------------------------------------------|
|-9-10-12-9-t19p12-t19p10-t19p10p9-t18p10-t18p8-t18p8p7----------------------|
|-------------------------------------------------------t17p8-t17p7-t17p7p5--|
|----------------------------------------------------------------------------|
|----------------------------------------------------------------------------|
|----------------------------------------------------------------------------|
|----------------------------------------------------------------------------|
|---------------------------------------------------|
|-t17p8-t17p7-t17p7p5-t17p8p7-t17p8p7-t17p8p7p5s3s5-|
|---------------------------------------------------|
|---------------------------------------------------|
|---------------------------------------------------|
|---------------------------------------------------|
|-12^-12^-12^-rp10-12-10h12p10-9-10-9|10-9-7-6-19^-19^-r-18-15-14-15-15p14---|
|-10^-10^-10^-rp8--10--8h10p8--7-8--7|8--7-----17^-17^-r-16-13-12-13-13p12---|
|------------------------------------------9-8-------------------------------|
|----------------------------------------------------------------------------|
|----------------------------------------------------------------------------|
|----------------------------------------------------------------------------|
|----15p14----s12-14-18-14-12-18-14-12-18-14-12-18-14-12-18-14-12-18-14-12-----|
|-17-13p12-15------------------------------------------------------------------|
|-14-------12------------------------------------------------------------------|
|------------------------------------------------------------------------------|
|------------------------------------------------------------------------------|
|------------------------------------------------------------------------------|
|-18-14-12-18-14-12-18-14-12-18-14-12--19----------------------------------|
|--------------------------------------------------------------------------|
|--------------------------------------------------------------------------|
|------------------------------------------5--5-5-5---4-4--5--5-5-5---4-4--|
|------------------------------------------5--5-5-5---4-4--5--5-5-5---4-4--|
|------------------------------------------3--3-3-3-0-2-2--3--3-3-3-0-2-2--|
|------------s18-19-24-22-20-19-23-21-19-17-20-19-17-15-19-17-15-14-14-17--|
|-------13^----------------------------------------------------------------|
|-------13^----------------------------------------------------------------|
|-3-3----------------------------------------------------------------------|
|-3-3----------------------------------------------------------------------|
|-1-1----------------------------------------------------------------------|
|-17p15-14-12-11-12-15-14-12-10-9-10-9-10-14-12-10-9-8-9-12-10-8-7---------|
|------------------------------------------------------------------10^-10^-|
|--------------------------------------------------------------------------|
|--------------------------------------------------------------------------|
|--------------------------------------------------------------------------|
|--------------------------------------------------------------------------|
|--------------------------------------------------------------------------|
|-12p10-8-7---7-8-7---7-----------7---------0---0---------0-\/--12---------|
|-----------9-------9---9-7-9---7---9-7---9---7---2-------------12---------|
|---------------------------------------9-----------4-2-0-------12---------|
|--------------------------------------------------------------------------|
|--------------------------------------------------------------------------|

|--------------------------------------------7h8p7----7-8-8h10h12-12-10-8-7--|
|-----------------------------7-8-7---7-8-10-------10------------------------|
|-7h9-7----5h7-5-4-5-4-----s9-------9----------------------------------------|
|-------10-------------4-----------------------------------------------------|
|----------------------------------------------------------------------------|
|----------------------------------------------------------------------------|
|-----------7--------------------------------------------------------|
|-------------10p8-7-<5>-\/------------------------------------------|
|-9-7--7-5-----------<5>-\/--12p0-12p0-12p0-12p0-12p0-12p0-11p0-11p0-|
|-9-7--7-5-----------------------------------------------------------|
|--------------------------------------------------------------------|
|--------------------------------------------------------------------|
|-------------------------------------------------------------------------|
|-------------------------------------------------------------------------|
|-9p0-9p0-9p0-9p0-9p0-9p0-9p0-9p0-16p0-16p0-16p0-16p0-16p0-16p0-14p0-14p0-|
|-------------------------------------------------------------------------|
|-------------------------------------------------------------------------|
|-------------------------------------------------------------------------|
|----------------------------------------------------------------------------|
|----------------------------------------------------------------------------|
|-12p0-12p0-12p0-12p0-12p0-12p0-12p0-12p0-2p0-2p0-2h4p0-4p0-5p0-5p0-4p0-4p0--|
|----------------------------------------------------------------------------|
|----------------------------------------------------------------------------|
|----------------------------------------------------------------------------|
|--------------------------------------------------|
|--------------------------------------------------|
|-5p0-5p0-7p0-7p0-9p0-9p0-9p0-9p0-(5)-\/--\/--\/---|
|---------------------------------(5)-\/--\/--\/---|
|--------------------------------------------------|
|--------------------------------------------------|
I'd love to see the Four Horsemen solo too... is anyone willing to type
that up? Thanks...
-Matt Holliman, slayer@imsa.edu

"You cannot hide the face of death,


oppression ruled by bloodshed"
-- BLOOD RED by SLAYER

From: tahuq@bucknell.edu (Timi Hendrix)


Subject: TAB: Metallica's Blackened
Okay, For Blackened. This is a little rough sketch... I assume you are familiar
with it... here goes.
x - percussive mute
After intro. (see previous post).
fast
riff 1 (7/4) time

note: the last phrase (3-4-5), 3 & 4 are 16th notes. All other notes are 8th's
||-------------------------------|---------------------------------------------|
|
||-------------------------------|---------------------------------------------|
|
||---------------------------3---|---------------------------------------------|
|
||---x-2-x-2-x-2-3-2-x-2-x-2---2-|-x-2-x-2-x-2-3-2-2---------------------------|
|
||-------------------------------|-------------------------3-4-5---------------|
|
||-------------------------------|-------------------2-3-4---------------------|
|
I. repeat riff 1 (3 times) then
||-------------------------------|---------------------------------------------|
|
||-------------------------------|---------------------------------------------|
|
||---------------------------3---|---------------------------------------------|
|
||---x-2-x-2-x-2-3-2-x-2-x-2---2-|---------------------------------------------|
|
||-------------------------------|---5--5-5-5---4-4------5--5-5-5---4-4--------|
|
||-------------------------------|---3--3-3-3-0-2-2------3--3-3-3-0-2-2--------|
|
II. repeat riff 1 (4 times) then III.
riff 2 (6/4) time, used during the verses.
note: all eighth notes
||-----------------------------||
||-----------------------------||
||-----------------------------||
||-----------------------------||
||-----------------------------||
||---0-0-0-0-0-0-6-0-0-7-6-3---||
III. repeat riff 2 (4 times) then IV.
riff 3 (6/4) time, used during verses
note: all eighth notes
||-----------------------------||
||-----------------------------||
||-----------------------------||
||-----------------------------||
||-----------------------------||
||---3-3-3-3-3-3-6-3-3-7-6-3---||

IV. verses: riff 2 (3 times) then riff 3 (1 time)

<----play IV. twice.

V. then riff 1 then


||-------------------------------|
|-------------||
||-------------------------------| one |-------------||
||---------------------------3---| bar |-------------||
||---x-2-x-2-x-2-3-2-x-2-x-2---2-|
of |-------------||
||-------------------------------| (2/4)|---2-2-2-2---||
||-------------------------------|
|---0-0-0-0---||
VI. chorus
not sure where the bar lines should be. it's in (4/4) time
||-------------------------------------------------------------||
||-------------------------------------------------------------||
||-------------------------------------------------------------||
||---9----------7-----5--5--5--4-------------------------------||
||---7----------5-----3--3--3--4---------------5-5-5---4-4-4---||
||---0------0-0---0-0----------2---------------3-3-3---2-2-2---||
||----------------------------------------------------------------------------||
||----------------------------------------------------------------------------||
||----------------------------------------------------------------------------||
||---2----------7-----5--5--5--4----------------------------------------------||
||---2----------5-----3--3--3--4-----------5--5-5-5---4-4----5--5-5-5---4-4---||
||---0------0-0---0-0----------2-----------3--3-3-3-0-2-2----3--3-3-3-0-2-2---||
VII. play riff 1 (2 times) then repeat IV., V., and VI. then play an F5th and
then an E5th.
this is enough for right now. I will send or post the rest later.
Timi Hendrix.
#----------------------------------PLEASE NOTE--------------------------------#
#This file is the author's own work and represents their interpretation of the #
#song. You may only use this file for private study, scholarship, or research. #
#------------------------------------------------------------------------------#
#
From: bprenike@socs.uts.EDU.AU (Brett Phillip Renike)
Here's Metallica's ...And Justice For All.
I've tabbed it from memory, so if anyone could fix up the mistakes
and the parts I can't remember, please do so.
...And Justice For All
Metallica
Intro: (clean)
|----------------------------------------------|
|----------------------------------------------|
|.---------------------------------------------|
|.-6-7-9---7-6h7p6-4-5-5-4-7-4-2-3-5---3-2h3p2-|
|--7-----7---------5-----5---5-3-----3---------|
|--0-------------------------------------------|

(x 5)
|----------------------------|
|----------------------------| 3rd and 4th times
|-----------------------2---.|
play this with distortion
|-0-2-2-0-2-0-0-2-2-0-2---3-.| I can't remember how Gtr. 2 goes
|-2-----2---2-1-----1-----1--| 5th time play all distorted
|----------------------------|
Riff 1:
|------------------------------|--------------------------|
|-.----------------------------|--------------------------|
|-3----.-.----.-.-.----.-.-.-.-|-5-3-2---3-2-----2--------|
|-3----8-7----8-7-6----8-7-6-5-|-5-3-2-5-3-2-5-3-2-5-3-2--|
|-1----8-7----8-7-6----8-7-6-5-|-------5-----5-3---5-3-2--|
|------6-5----6-5-4----6-5-4-3-|--------------------------|
|---------------------------------|
|---------------------------------|
|--2------------------------------|
|--2--5--3--2----5-3-2---2--------|
|-----5--3--2----5-3-2-5-2-5-3-2--|
|----------------------5---5-3-2--|
Riff 2
(x 4)
|--------------------------------|-----------------------------------|
|--------------------------------|-----------------------------------|
|--------------------------------|.---------------------------------.|
|-2------------------------(2)---|.-(2)-------------------------(2)-.|
|-2------------------------(2)---|--(2)-------------------------(2)--|
|-0------------------------(0)---|--(0)-------------------------(0)--|
Riff 3: (x 4)
|------------------------------------------------|
|------------------------------------------------|
|-.-.----.-.------------------.-.----------------|
|-8-8-7--8-8-7---------------8-8-7---------------|
|-8-8-7--8-8-7----5h7-7-5----8-8-7----5h7-7-5----|
|-6-6-5--6-6-5--0---------7--6-6-5--0---------7--|
Riff 4:
|-------------------------|-----------|-----------|-----------|
|-------------------------|-----------|-----------|-----------|
|-.-.----.-.--------------|-2---------|-----------|-2---------|
|-8-8-7--8-8-7--2---------|-2---------|-2---------|-2---------|
|-8-8-7--8-8-7--2---------|-0---------|-2---------|-0---------|
|-6-6-5--6-6-5--0---------|-----------|-0---------|-----------|
Riff 3 (x 2)
Riff 5:
|-------------------------------------------------|
|-------------------------------------------------|
|-.-.----.-.------.----.--------------.----.------|
|-8-8-7--5-5-4----2--x-2-2-------3----2--x-2--2---|
|-8-8-7--5-5-4--.-2--x-2-2---.-.-3--.-2--x-2--2---|
|-6-6-5--3-3-2--0-0--x-0-0---0-0-1--0-0--x-0--0---|
|---------------------------------------------------------------|
|---------------------------------------------------------------|

|-.-.----.-.------.----.--------------.----.------.-.----.-.----|
|-8-8-7--8-8-7----2--x-2-2-------3----2--x-2--2---8-8-7--8-8-8\-|
|-8-8-7--8-8-7--.-2--x-2-2---.-.-3--.-2--x-2--2---8-8-7--8-8-8\-|
|-6-6-5--6-6-5--0-0--x-0-0---0-0-1--0-0--x-0--0---6-6-5--6-6-6\-|
Verse 1
=======
Riff 6: (x 4)
|-------------------------------------------------|
|-------------------------------------------------|
|--------.-------------------.------.-.----.-.----|
|---2--x-2-2-------3----2--x-2--2---8-8-7--8-8-7--|
|-.-2--x-2-2---.-.-3--.-2--x-2--2---8-8-7--8-8-7--|
|-0-0--x-0-0---0-0-1--0-0--x-0--0---6-6-5--6-6-5--|
Fill 1: ??
|-----------------------------|
|-----------------------------|
|-----------------------------|
|-----------------------------|
|-----------------------------|
|-----------------------------|
Riff 7:
(x 3)
|-------------------------------|------------------------------------|
|-------------------------------|------------------------------------|
|.-----------------------------.|--------------0h5h7-----------------|
|.-3-------------4\3---4/5-4/5-.|-3-----------------0h5h7------------|
|--3-------------4\3---4/5-4/5--|-3----------------------0h5h7-0h2h3-|
|--1-1-1-1-1-1-1-2\1-0-2/3-2/3--|-1-1-1-1-1-1-1----------------------|
(x 3)
|-------------------------------|------------------------------------|
|-------------------------------|------------------------------------|
|.-----------------------------.|--------------0h5h7-----------------|
|.-3-------------4\3---4/5-4/5-.|-3-----------------0h5h7------------|
|--3-------------4\3---4/5-4/5--|-3----------------------0h5h7-0h2h3-|
|--1-1-1-1-1-1-1-2\1-0-2/3-2/3--|-1-1-1-1-1-1-1----------------------|
|-------------------------------------------------------|
|-------------------------------------------------------|
|-0h5h7-------------------------------------------------|
|------0h5h7------------4-2--------------4\3---4/5-4/5--|
|-----------0h5h7-0h2h3-4-2--------------4\3---4/5-4/5--|
|-----------------------2-0--0-0-0-0-0-0-2\1-0-2/3-2/3--|
Chorus
======
Riff 8:
|-------------------------------------------------|
|-------------------------------------------------|
|--2----4----5------------------------------------|
|--2----4----5----4-2--------------4\3---4/5-4/5--|
|--0----2----3----4-2--------------4\3---4/5-4/5--|
|-----------------2-0--0-0-0-0-0-0-2\1-0-2/3-2/3--|
|------------------------------------------|-------------------------|
|------------------------------------------|-------------------------|

|-2----4-----------------------------------|-2----4----0----5--------|
|-2----4----4-2--------------4\3---4/5-4/5-|-2----4----0----5----2---|
|-0----2----4-2--------------4\3---4/5-4/5-|-0----2---------3----2---|
|-----------2-0--0-0-0-0-0-0-2\1-0-2/3-2/3-|-----------3---------0---|
Riff 3 (x 2)
Riff 5
Verse
Chorus
Riff 3 (x 2)
Riff 1
Riff 2
Solo
====
Riff 7
Riff 6 (x ?)
Fill 2: ??
|------------------------------------------|
|------------------------------------------|
|------------------------------------------|
|------------------------------------------|
|------------------------------------------|
|------------------------------------------|
Riff 6 (x 3)
|--------------------------------------------------------------------|
|--------------------------------------------------------------------|
|--------------------------------------------------------------------|
|-8-8-7--8-8-7--7-7-6--7-7-6--6-6-5--6-6-5--5-5-4--5-5-4--3-4-4-4-4--|
|-8-8-7--8-8-7--7-7-6--7-7-6--6-6-5--6-6-5--5-5-4--5-5-4--3-4-4-4-4--|
|-6-6-5--6-6-5--5-5-4--5-5-4--4-4-3--4-4-3--3-3-2--3-3-2--1-2-2-2-2--|
Intro (x 5) w/distortion
(x 3)
|--------------------------------------------------|-----------------|
|--------------------------------------------------|-----------------|
|------.-.---.-----.-.---.-----.-.---.-----.-.---.-|.-----.-.---.---.|
|--6---6-6-6-6-4---4-4-4-4-2---2-2-2-2-0---0-0-0-0-|.-0---0-0-0-0---.|
|--7---7-7-7-7-5---5-5-5-5-3---3-3-3-3-2---2-2-2-2-|--1---1-1-1-1----|
|--------------------------------------------------|-----------------|
(x 2)
|--------------------|---------------------------|
|--------------------|---------------------------|
|--------------------|.-------------------------.|
|--2------------(2)--|.-(2)-----------------(2)-.|
|--2------------(2)--|--(2)-----------------(2)--|
|--0------------(0)--|--(0)-----------------(0)--|
Riff 3 (x 2)
Fill 3:
|--------------|
|--------------|
|-.-.----.-.---|
|-8-8-7--2-2-3-|

|-8-8-7--2-2-3-|
|-6-6-5--0-0-1-|
Verse
Chorus
Riff 4 (repeat last bar)
Riff 8 (last bar only)
Riff 4
|---------|---------|---------|---------|---------|
|---------|---------|---------|---------|---------|
|-7-------|-5-------|---------|---------|-.-.-.---|
|-7-------|-5-------|-7-------|-5-------|-5-4-2---|
|-5-------|-3-------|-7-------|-5-------|-5-4-2---|
|---------|---------|-5-------|-3-------|-3-2-0---|
|---------|---------|---------|---------|
|---------|---------|---------|---------|
|---------|-5-------|---------|-.-.-.---|
|-5-------|-5-------|-7-------|-5-4-2---|
|-5-------|-3-------|-7-------|-5-4-2---|
|-3-------|---------|-5-------|-3-2-0---|
|---------|---------|---------|---------|
|---------|---------|---------|---------|
|---------|-.-.-.---|---------|-.-.-.---|
|-5-------|-5-4-2---|---------|-5-4-2---|
|-5-------|-5-4-2---|---------|-5-4-2---|
|-3-------|-3-2-0---|---------|-3-2-0---|
-*------------------------------------------------------*
|
|
| "Beware my friends, as you pass by.
|
#----------------------------------PLEASE NOTE--------------------------------#
#This file is the author's own work and represents their interpretation of the #
#song. You may only use this file for private study, scholarship, or research. #
#------------------------------------------------------------------------------#
#
Date: Sat, 31 Dec 1994 16:41:34 -0600
From: gregh@tcs.itis.com (Greg and or Paul Halvorson)
Subject: TAB: Eye Of The Beholder by Metallica
EYE OF THE BEHOLDER
by Metallica
from the ...And Justice For All album
Well here's another one for you by Metallica. I think the whole song is
here, except the solos. If anyone else wants to tab the solos and repost this
w/ the solos, go right ahead. I don't have music for the solos. Well anyway...
have fun.
Repeat & fade from pp-ff
14x
||-------------------------------------------------||--||----------------------|
||-------------------------------------------------||--||----------------------|
||*-----------------------------------------------*||--||*---------------------|
||*--------------------------------------------9--*||--||*---------------------|

||---------------------------------------------7---||--||----------------------|
||---0--0--0--0--0--0--0--0--0-----0-----0--0--0---||--||---0--0--0--0--0------|
4x
------------------------------|------------------------------------------------|
------------------------------|------------------------------------------------|
------------------------------|------------------------------------------------|
------------------------------|------------------------------------------------|
------------------------------|------------------------------------------------|
0--0--0--3-----3-----3--3--3--|--2--2--2--2--2--2--2--2--2-----2-----2--2------|
----||--||-------------------------------------------||--||--------------------|
----||--||-------------------------------------------||--||--------------------|
---*||--||*-----------------------------------------*||--||*-------------------|
---*||--||*-----------------------------------------*||--||*-------------------|
----||--||-------------------------------------------||--||--------------------|
2---||--||---0--0--0-----0--0--0-----0--0--0--0--0---||--||---0--0--0-----0----|
----------------------||----------------------------------------|--||----------|
----------------------||----------------------------------------|--||----------|
---------------------*||----------------------------------------|--||*---------|
---------9--9--9--8--*||--------------------8h9p8---------------|--||*---------|
---------7--7--7--7---||------------------------------7h8p7-----|--||----------|
---0------------------||--0--0--0-----0--0---------0---------0--|--||---0------|
-------------------------------||----------------------------------------------|
-------------------------------||----------------------------------------------|
------------------------------*||----------------------------------------------|
------------------9--9--9--8--*||-----------------------8h9p8------------------|
------------------7--7--7--7---||---------------------------------7h8p7--------|
0--0-----0--0------------------||--0--0--0-----0--0------------0---------0-----|
Rhy. Fig. 1
|----------------------|-----------||--||--------------------------------------|
|----------------------|-----------||--||--------------------------------------|
|----------------------|-----------||--||*-------------------------------------|
|----------------------|--2-----2--||--||*-------------------------------------|
|----------------------|--2-----2--||--||--------------------------------------|
|--6h7p6--0--2h3p2--0--|--0-----0--||--||----0--0--0--0--0--0--0--0--3---------|
---------------|------------------------------------------------||-------------|
---------------|------------------------------------------------||-------------|
---------------|-----------------------------------------------*||-------------|
------------5--|--------------------------------------------4--*||-------------|
------------5--|--------------------------------------------4---||-------------|
3-----3--3--3--|--2--2--2--2--2--2--2--2--2-----2-----2--2--2---||--0--0--0----|
------------------------------------|------------------------------------------|
------------------------------------|------------------------------------------|
------------------------------------|------------------------------------------|
------------------------------------|------------------------------------------|
---------------------------------7--|------------------------------------------|
0--0--0--0--0--0-----0-----0--0--0--|--0--0--0--0--0--0--0--0--0-----0---------|
Rhy. Fig. 2
---------||-----|-------------------------|------------------------|-----------|
---------||-----|-------------------------|------------------------|-----------|

---------||-----|------9--9--10--7--7--8--|-----9--9--10--7--7--8--|-----9-----|
---------||--4--|------9--9--10--7--7--8--|-----9--9--10--7--7--8--|-----9-----|
------7--||--4--|------7--7--8---5--5--6--|-----7--7--8---5--5--6--|-----7-----|
0--0--0--||--2--|---0---------------------|--0---------------------|--0--7-----|
----------------|------------------------|------------------------|------------|
----------------|------------------------|------------------------|------------|
9--10--7--7--8--|-----9--9--10--7--7--8--|-----9--9--10--7--7--8--|------------|
9--10--7--7--8--|-----9--9--10--7--7--8--|-----9--9--10--7--7--8--|--9---------|
7--8---5--5--6--|-----7--7--8---5--5--6--|-----7--7--8---5--5--6--|--7---------|
7--8---5--5--6--|--0--7--7--8---5--5--6--|--0--7--7--8---5--5--6--|--0---------|
------------------|--------------------|-----------------------|---------------|
------------------|--------------------|-----------------------|---------------|
------------------|--------------------|-----------------------|---------------|
---------------9--|--5--------------2--|-----------------------|---------------|
---------------7--|--5--------------2--|-----------------------|---------------|
0-----0-----0--0--|--3-----0--0--0--0--|--6--6--6-----3--3--3--|--5--5--5------|
------------------------------------|--------------||--||----------------------|
------------------------------------|--------------||--||----------------------|
------------------------------------|--------------||--||*---------------------|
------------------------------------|--4-----5--4--||--||*---------------------|
------------------------------------|--4-----5--4--||--||----------------------|
---3--3--3-----2--2--2-----3--3--3--|--2-----3--2--||--||---0--0--0--0--0------|
------------|-----------------------------|-----------------------------|------|
------------|-----------------------------|-----------------------------|------|
------------|-----------------------------|-----------------------------|------|
9--9--9--8--|-----------------9--9--9--8--|-----------------9--9--9--8--|------|
7--7--7--7--|-----------------7--7--7--7--|-----------------7--7--7--7--|------|
------------|--0--0--0--0--0--------------|--0--0--0--0--0--------------|------|
-----------------------------------------------------------||------------------|
-----------------------------------------------------------||------------------|
----------------------------------------------------------*||------------------|
---------------8h9p8-----------------------------------2--*||------------------|
-------------------------7h8p7-------------------------2---||------------------|
0--0--0--0--0---------0---------0--6h7p6--0--2h3p2--0--0---||------------------|
Go back and play next verse here.
-------------------------------||--||--------------------------||--------------|
-------------------------------||--||--------------------------||--------------|
-------------------------------||--||*-----9--9--10--7--7--8--*||--------------|
-------------------------------||--||*-----9--9--10--7--7--8--*||--9-----------|
-------------------------------||--||------7--7--8---5--5--6---||--7-----------|
-------------------------------||--||---0--7--7--8---5--5--6---||--0-----0-----|
---------||------------------------|------------------------|------------------|
---------||------------------------|------------------------|------------------|
---------||-----9--9--10--7--7--8--|-----9--9--10--7--7--8--|------------------|
------9--||-----7--7--10--7--7--8--|-----9--9--10--7--7--8--|--9---------------|
------7--||-----7--7--8---5--5--6--|-----7--7--8---5--5--6--|--7---------------|
0--0--0--||--0---------------------|--0---------------------|--0-----0--0------|
------|-----|-----------------------------------|-----||-----------------------|
------|-----|-----------------------------------|-----||-----------------------|
------|-----|-----------------------------------|-----||-----------------------|
---9--|--2--|--5--------------------------------|--2--||-----------------------|

---7--|--2--|--5--2--2--2--2--2--2--2--2--2--2--|--2--||-----------------------|
0--0--|--0--|--3--0--0--0--0--0--0--0--0--0--0--|--0--||-----------------------|
===============================================================================
==
TABLATURE EXPLANATION
==
===============================================================================
-------------5h8--- Hammeron
-------------5p8--- Pulloff

----------|
----(8)---| Ghost Note
----------|
----------|

-------------5/8--- Slide Up
-------------5\8--- Slide Down

----------|
-----x----| Dead Note
----------|
----------|

-------------5~~~-- Vibrato
-------------------

||------|| Repeat Start & End


||*----*||
||*----*||
||------||

Rhythm:
w = whole note
h = half note
q = quarter note
e = eighth note
s = sixteenth note
^ = triplet

W
H
Q
E
S

=
=
=
=
=

dotted
dotted
dotted
dotted
dotted

whole
half
quarter
eighth
sixteenth

===============================================================================
==
Created with a shareware version of the BUCKET 'O TAB
==
==
tablature creation software for Windows
==
==
For more information:
==
==
email: gse@ocsystems.com
==
==
US Mail: The Bucket, 3176-B5 Summit Square Dr., Oakton, VA 22124
==
===============================================================================
#----------------------------------PLEASE NOTE--------------------------------#
#This file is the author's own work and represents their interpretation of the #
#song. You may only use this file for private study, scholarship, or research. #
#------------------------------------------------------------------------------#
#
Date: Sat, 31 Dec 1994 16:41:34 -0600
From: gregh@tcs.itis.com (Greg and or Paul Halvorson)
Subject: TAB: Eye Of The Beholder by Metallica
EYE OF THE BEHOLDER
by Metallica
from the ...And Justice For All album
Well here's another one for you by Metallica. I think the whole song is
here, except the solos. If anyone else wants to tab the solos and repost this
w/ the solos, go right ahead. I don't have music for the solos. Well anyway...
have fun.
Repeat & fade from pp-ff
14x
||-------------------------------------------------||--||----------------------|

||-------------------------------------------------||--||----------------------|
||*-----------------------------------------------*||--||*---------------------|
||*--------------------------------------------9--*||--||*---------------------|
||---------------------------------------------7---||--||----------------------|
||---0--0--0--0--0--0--0--0--0-----0-----0--0--0---||--||---0--0--0--0--0------|
4x
------------------------------|------------------------------------------------|
------------------------------|------------------------------------------------|
------------------------------|------------------------------------------------|
------------------------------|------------------------------------------------|
------------------------------|------------------------------------------------|
0--0--0--3-----3-----3--3--3--|--2--2--2--2--2--2--2--2--2-----2-----2--2------|
----||--||-------------------------------------------||--||--------------------|
----||--||-------------------------------------------||--||--------------------|
---*||--||*-----------------------------------------*||--||*-------------------|
---*||--||*-----------------------------------------*||--||*-------------------|
----||--||-------------------------------------------||--||--------------------|
2---||--||---0--0--0-----0--0--0-----0--0--0--0--0---||--||---0--0--0-----0----|
----------------------||----------------------------------------|--||----------|
----------------------||----------------------------------------|--||----------|
---------------------*||----------------------------------------|--||*---------|
---------9--9--9--8--*||--------------------8h9p8---------------|--||*---------|
---------7--7--7--7---||------------------------------7h8p7-----|--||----------|
---0------------------||--0--0--0-----0--0---------0---------0--|--||---0------|
-------------------------------||----------------------------------------------|
-------------------------------||----------------------------------------------|
------------------------------*||----------------------------------------------|
------------------9--9--9--8--*||-----------------------8h9p8------------------|
------------------7--7--7--7---||---------------------------------7h8p7--------|
0--0-----0--0------------------||--0--0--0-----0--0------------0---------0-----|
Rhy. Fig. 1
|----------------------|-----------||--||--------------------------------------|
|----------------------|-----------||--||--------------------------------------|
|----------------------|-----------||--||*-------------------------------------|
|----------------------|--2-----2--||--||*-------------------------------------|
|----------------------|--2-----2--||--||--------------------------------------|
|--6h7p6--0--2h3p2--0--|--0-----0--||--||----0--0--0--0--0--0--0--0--3---------|
---------------|------------------------------------------------||-------------|
---------------|------------------------------------------------||-------------|
---------------|-----------------------------------------------*||-------------|
------------5--|--------------------------------------------4--*||-------------|
------------5--|--------------------------------------------4---||-------------|
3-----3--3--3--|--2--2--2--2--2--2--2--2--2-----2-----2--2--2---||--0--0--0----|
------------------------------------|------------------------------------------|
------------------------------------|------------------------------------------|
------------------------------------|------------------------------------------|
------------------------------------|------------------------------------------|
---------------------------------7--|------------------------------------------|
0--0--0--0--0--0-----0-----0--0--0--|--0--0--0--0--0--0--0--0--0-----0---------|

Rhy. Fig. 2
---------||-----|-------------------------|------------------------|-----------|
---------||-----|-------------------------|------------------------|-----------|
---------||-----|------9--9--10--7--7--8--|-----9--9--10--7--7--8--|-----9-----|
---------||--4--|------9--9--10--7--7--8--|-----9--9--10--7--7--8--|-----9-----|
------7--||--4--|------7--7--8---5--5--6--|-----7--7--8---5--5--6--|-----7-----|
0--0--0--||--2--|---0---------------------|--0---------------------|--0--7-----|
----------------|------------------------|------------------------|------------|
----------------|------------------------|------------------------|------------|
9--10--7--7--8--|-----9--9--10--7--7--8--|-----9--9--10--7--7--8--|------------|
9--10--7--7--8--|-----9--9--10--7--7--8--|-----9--9--10--7--7--8--|--9---------|
7--8---5--5--6--|-----7--7--8---5--5--6--|-----7--7--8---5--5--6--|--7---------|
7--8---5--5--6--|--0--7--7--8---5--5--6--|--0--7--7--8---5--5--6--|--0---------|
------------------|--------------------|-----------------------|---------------|
------------------|--------------------|-----------------------|---------------|
------------------|--------------------|-----------------------|---------------|
---------------9--|--5--------------2--|-----------------------|---------------|
---------------7--|--5--------------2--|-----------------------|---------------|
0-----0-----0--0--|--3-----0--0--0--0--|--6--6--6-----3--3--3--|--5--5--5------|
------------------------------------|--------------||--||----------------------|
------------------------------------|--------------||--||----------------------|
------------------------------------|--------------||--||*---------------------|
------------------------------------|--4-----5--4--||--||*---------------------|
------------------------------------|--4-----5--4--||--||----------------------|
---3--3--3-----2--2--2-----3--3--3--|--2-----3--2--||--||---0--0--0--0--0------|
------------|-----------------------------|-----------------------------|------|
------------|-----------------------------|-----------------------------|------|
------------|-----------------------------|-----------------------------|------|
9--9--9--8--|-----------------9--9--9--8--|-----------------9--9--9--8--|------|
7--7--7--7--|-----------------7--7--7--7--|-----------------7--7--7--7--|------|
------------|--0--0--0--0--0--------------|--0--0--0--0--0--------------|------|
-----------------------------------------------------------||------------------|
-----------------------------------------------------------||------------------|
----------------------------------------------------------*||------------------|
---------------8h9p8-----------------------------------2--*||------------------|
-------------------------7h8p7-------------------------2---||------------------|
0--0--0--0--0---------0---------0--6h7p6--0--2h3p2--0--0---||------------------|
Go back and play next verse here.
-------------------------------||--||--------------------------||--------------|
-------------------------------||--||--------------------------||--------------|
-------------------------------||--||*-----9--9--10--7--7--8--*||--------------|
-------------------------------||--||*-----9--9--10--7--7--8--*||--9-----------|
-------------------------------||--||------7--7--8---5--5--6---||--7-----------|
-------------------------------||--||---0--7--7--8---5--5--6---||--0-----0-----|
---------||------------------------|------------------------|------------------|
---------||------------------------|------------------------|------------------|
---------||-----9--9--10--7--7--8--|-----9--9--10--7--7--8--|------------------|
------9--||-----7--7--10--7--7--8--|-----9--9--10--7--7--8--|--9---------------|
------7--||-----7--7--8---5--5--6--|-----7--7--8---5--5--6--|--7---------------|
0--0--0--||--0---------------------|--0---------------------|--0-----0--0------|
------|-----|-----------------------------------|-----||-----------------------|

------|-----|-----------------------------------|-----||-----------------------|
------|-----|-----------------------------------|-----||-----------------------|
---9--|--2--|--5--------------------------------|--2--||-----------------------|
---7--|--2--|--5--2--2--2--2--2--2--2--2--2--2--|--2--||-----------------------|
0--0--|--0--|--3--0--0--0--0--0--0--0--0--0--0--|--0--||-----------------------|
===============================================================================
==
TABLATURE EXPLANATION
==
===============================================================================
-------------5h8--- Hammeron
-------------5p8--- Pulloff

----------|
----(8)---| Ghost Note
----------|
----------|

-------------5/8--- Slide Up
-------------5\8--- Slide Down

----------|
-----x----| Dead Note
----------|
----------|

-------------5~~~-- Vibrato
-------------------

||------|| Repeat Start & End


||*----*||
||*----*||
||------||

Rhythm:
w = whole note
h = half note
q = quarter note
e = eighth note
s = sixteenth note
^ = triplet

W
H
Q
E
S

=
=
=
=
=

dotted
dotted
dotted
dotted
dotted

whole
half
quarter
eighth
sixteenth

===============================================================================
==
Created with a shareware version of the BUCKET 'O TAB
==
==
tablature creation software for Windows
==
==
For more information:
==
==
email: gse@ocsystems.com
==
==
US Mail: The Bucket, 3176-B5 Summit Square Dr., Oakton, VA 22124
==
===============================================================================
#----------------------------------PLEASE NOTE--------------------------------#
#This file is the author's own work and represents their interpretation of the #
#song. You may only use this file for private study, scholarship, or research. #
#------------------------------------------------------------------------------#
#
From: C.W.G.M.Enders@kub.nl (C. Enders)
Subject: [TAB] Metallica - One (UPDATE)
First 90 lines by From: "Jackson C. Yang"
-=-=-=-=-=-=-=-==-=-=-=-=-=-=-=-=-=-=-=-=-=-=-=-=-=-=-=-=-=-=-=-=-=-=-=-=-=Changes : lyrics added
Changes : clasical solo added
Changes : heavy metal solo added
-=-=-=-=-=-=-=-==-=-=-=-=-=-=-=-=-=-=-=-=-=-=-=-=-=-=-=-=-=-=-=-=-=-=-=-=-="ONE"

by: Metallica

[ intro ]
[ begins with gunfires and battlefield sound for a few seconds.. ]
Bm
Gmaj7(no3rd) Bm
Gmaj7(no3rd)
|--------------|--------------|--------------|-------------------|
|--------------|--------------|--------------|-------------------|
|--------------|--------------|--------------|----------------0--|
|-----4-----0--|-----4-----0--|-----4-----0--|-----4-----0-------|
|--2-----2-----|--------------|--2-----2-----|-------------------|
|--------------|--3-----3-----|--------------|--3-----3----------|
D/A
Gmaj7(no3rd)
|--------------|--------------|--------------|-------------------|
|--------------|--------------|--------------|-------------------|
|-(0)----------|--------------|--------------|-------------------|
|-----4-----0--|-----4-----0--|-----4-----0--|-------------------|
|--2-----2-----|--0-----0-----|--------------|-----2-----2-------|
|--------------|--------------|--3-----3-----|--0-----2----------|
Bm
Gmaj7(no3rd) Bm
|--------------|--------------|--------------|-------------------|
|--------------|--------------|--------------|-------------------|
|*-------------|--------------|--------------|--------------0----|
|*----4-----0--|-----4-----0--|-----4-----0--|-----4-----0-------|
|--2-----2-----|--------------|--2-----2-----|-------------------|
|--------------|--3-----3-----|--------------|--3-----3----------|
D/A
Gmaj7(no3rd) [1. N.C
]
|--------------|--------------|--------------|-------------------|
|--------------|--------------|--------------|-------------------|
|--------------|--------------|--------------|------------------*|
|-----4-----0--|-----4-----0--|-----4-----0--|------------------*|
|--2-----2-----|--0-----0-----|--------------|-----2-----2-------|
|--------------|--------------|--3-----3-----|--0-----2----------|
[2. N.C
] Bm
Gmaj7(no3rd)
|---------------------------|----------------------|-----------------------|
|---------------------------|----------------------|-----------------------|
|---------------------------|----------------------|-----------------------|
|---------------------------|-----4-----0--0--4----|-----4-----0--4--4--0--|
|-----2-----2-----2--2h4--2-|--2-----2-----------0-|-----------------------|
|--0-----2-----0------------|----------------------|--3-----3--------------|
Bm
Gamj7
Bm
|-----------------------|-----------------------|-----------------------|
|-----------------------|-----------------------|-----------------------|
|-----------------------|-----------------------|-----------------------|
|-----4-----0--0--4-----|-----4-----0--4--4--0--|-----4-----0--0--4--0--|
|--2-----2-----------0--|-----------------------|--2-----2--------------|
|-----------------------|--3-----3--------------|-----------------------|
D/A
Gamj7
(Em)
|-----------------------|-----------------------|-------------------|
|-----------------------|-----------------------|-------------------|
|--------------------0--|-(0)-------------------|-------------------|
|-----4-----0--4--4-----|-----4-----0--0--4--0--|-----2h4--2--------|
|--0-----0--------------|-----------------------|----------------4--|
|-----------------------|--3-----3--------------|--0----------2-----|
G5

A5

(D) Riff A

(G)

|-----------------------|-----------------------|------------------------|
|-----------------------|-----------------------|-----0h3p0----0h3p0-----|
|-----------------------|*--------0--7-----0----|------------4--------0--|
|---------0-------------|*-----7--------7-------|--5---------------------|
|-----5------------7----|---5-------------------|------------------------|
|--3---------3--5-------|-----------------------|------------------------|
(F)
[1. (Em)
] [2.(Em) N.C end Riff A
|--------1--------|--------------0------|------------------|
|-----------1-----|-----------0-----0---|-----0------------|
|-----0--------0--|-----4--0-----------*|--------0--4------|
|--3--------------|--2-----------------*|--2---------------|
|-----------------|---------------------|-------------/3---|
|-----------------|---------------------|------------------|
Then the solo:
1
2
3 4
1
2 3
4
1
2 3 4
|-----------------------|------------------------------|--------------------|
|-----------------------|-----3p2-----3p2---------3----|-3p2----------------|
|---------2---4b6b4-----|---------4-------2------------|-----4--------------|
|-----2h4---------------|------------------------------|--------------------|
|-----------------------|------------------------------|--------------------|
|-----------------------|------------------------------|--------------------|
1
2
3
4
1
2
3
4
|----------------------------------|----------------------------|
|-----7\5---5\4---4\2---2p0--------|------------------------2h3-|
|---------7-----------4-----0h2----|-2/4--------------2/4-------|
|----------------------------------|----------------------------|
|----------------------------------|----------------------------|
|----------------------------------|----------------------------|
1 2
3
4
1
2
3
4
1
2
|---------------------------|-------------------------|-------------|
|-2-------------2---3p2-----|-------------------------|-------------|
|---------2/4-----------2---|-2/4---------------------|-------------|
|---------------------------|-------------------------|-------------|
|---------------------------|-------------------------|-------------|
|---------------------------|-------------------------|-------------|
1
2
3
4
1
2
3
4
|-----------------}14---19----|-17-15-14-15--------------------|
|-----------------{x----------|-------------15-----------------|
|-----------------}x----------|--------------------------------|
|-----------------{x----------|--------------------------------|
|-----------------------------|--------------------------------|
|-----------------------------|--------------------------------|
1
2
3
4
1
2
3
4
|--------------------------------|---------------------------------|
|--------------------------------|---------------------------------|
|-----7p6-7-----9p7-9-------11p9-|-11----11/12---12---11-----------|
|--------------------------------|---------------------------------|
|--------------------------------|---------------------------------|
|--------------------------------|---------------------------------|
1
2
3
4
1
2
|---------------------------------------------|----------------12-----|
|----------------------------------12---------|----12-14---15---------|

|-----------11-12-14---------11-12------------|-11--------------------|
|--------12---------------12---------------12-|-----------------------|
|-----14---------------14---------------14----|-----------------------|
|---------------------------------------------|-----------------------|
3
4
1
2
3
4
-----------------------|------------------------------|
---15---14---12---14---|-14-----15-12-----------------|
-----------------------|------------------------------|
-----------------------|------------------------------|
-----------------------|------------------------------|
-----------------------|------------------------------|
[
[
[
[
[

Now play the verses with both Rhy. Fig.'s simultaneously for the verses.
(Rhy. Fig. 1 changes slightly, where you play the open 3rd string at the
end of the 1st line of tab. Simply leave that note out. Where it is in
the verses, a slide is done on the bottom 2 strings from the 3rd to 5th
fret {3/5}).

]
]
]
]
]

Bm

Gmaj7(no3rd)
Bm
Gmaj7(no3rd)
anything
can't tell if this is true or dream
Bm
D/A
Gmaj7(no 3rd)
N.C.
deep down inside I feel to scream
this terrible silence stops me
Bm
Gmaj7(no3rd) Bm
Gmaj7(no3rd)
Now that the war is through with me, I'm waking up I can not see
Bm
D/A
Gmaj7(no 3rd)
N.C.
that there's not much lef to to me. Nothing is real but pain now!
I can't remember

[Next comes the chorus. Just power chords. ]


G5 A5 B5
A5 G5 F#5 B5 A5
Hold my breath as I wish for death
B5 C#5 B5 A5 (5th string:)-3---4----5--Oh,please
God wake me!
[ One guitar holds that last note forever. The other plays Riff A twice
[ (1st ending, 2nd ending).

]
]

Bm

Gmaj7(no3rd)
Bm
Gmaj7(no3rd)
Back in the womb it's much to real in pumps life that I must feel
Bm
D/A
Gmaj7(no 3rd)
N.C.
But can't look forward to reveal
look to the time when I'll live
Bm
Gmaj7(no3rd) Bm
Gmaj7(no3rd)
Fed thourgh the tube that sticks in me
just like a wartime novelty
Bm
D/A
Gmaj7(no 3rd)
N.C.
tied to machines that make me be
cut this life off from me
G5 A5 B5
A5 G5 F#5 B5 A5
Hold my breath as I wish for death
B5 C#5 B5 A5 (5th string:)-3---4----5--Oh,please
God wake me!
[ classical solo ]
|----------------------------|----------------------|----------------------|
|-------------10p7-----7-----|-10-----10---8---7----|-7h8p7----------------|
|------------------7---------|--------------------9-|--------7-------------|
|----------------------------|----------------------|----------------------|
|-(5)------------------------|----------------------|----------------------|
|----------------------------|----------------------|----------------------|

|-/10-8-7-----7---8-|---------17p14-----14-|-17---17-15--14---15p14--------|
|---------10--------|-8~~~~~---------15----|-------------------------------|
|-------------------|----------------------|-------------------------------|
|-------------------|----------------------|-------------------------------|
|-------------------|----------------------|-------------------------------|
|-------------------|----------------------|-------------------------------|
|------------------15--17--|--19p17p15-19p17p15-19p17p15-14-15----14-------|
|-15------15--19-----------|-----------------------------------17----15----|
|--------------------------|-----------------------------------------------|
|--------------------------|-----------------------------------------------|
|--------------------------|-----------------------------------------------|
|--------------------------|-----------------------------------------------|
|------|-------------------------------|-----------------------------------|
|------|-/8---8--8\7-------------------|-/13----13---13---13---12----------|
|------|-/7---7--7----7----------------|-/12----12---12---12---12----------|
|------|-------------------------------|-----------------------------------|
|------|-------------------------------|-----------------------------------|
|------|-------------------------------|-----------------------------------|
T
T
T
T
T
T
|---20p17p13---20p17p13---20p17p13---20p17p13---20p17p13---20p17p13--------|
|--------------------------------------------------------------------------|
|--------------------------------------------------------------------------|
|--------------------------------------------------------------------------|
|--------------------------------------------------------------------------|
|--------------------------------------------------------------------------|
[ T := tap using edge of pick ]
T
T
|---20p12h13p12---20p12h13p12-|
|-----------------------------|
|-----------------------------|
|-----------------------------|
|-----------------------------|
|-----------------------------|
G5 A5 B5
A5 G5 F#5 B5
Now the world is gone I'm just one.
A5 B5 C#5 B5 A5 B5 C#5
Oh God help me!
G5 -A5-B5
-A5-G5-F#5 -B5 -A5-B5-C#5-B5-A5-B5-C#5
Hold my breath as I wish for death. Oh,please God wake
G5-A5-B5-A5-G5-F#5-B5
me!
Am
G
B
C
-------------|----------------|-------------|------------|
-------------|----------------|-------------|------------|
-------------|----------------|-4-----4-----|---5-----5--|
--2--0--2--0-|-----5--5--5--5-|-4-----4-----|---5-----5--|
--3--2--3--0-|--2--5--5--5--5-|-2-----2-----|---3-----3--|
-------------|--3--3--3--3--3-|----2-----2--|------3-----|
Play 4 times
C/E

B5

C5

-------------------|----------------|---------------|---------------------|
-------------------|----------------|---------------|---------------------|
-------------------|----------------|---4-----4-----|-5--5-5--------5-----|
--5--5--5--7--5----|-4--4--4--5--4\-|---4-----4-----|-5--5-5--5-----5-----|
--7--7--7--7--7--5-|-5--5--5--5--5\-|---2-----2-----|-3--3-3--3-----3-----|
-------------------|----------------|------2-----2--|------------3-----3--|
Play twice
---------------|-----------------|------------------------------------|
---------------|-----------------|------------------------------------|
---------------|-----------------|------------------------------------|
--5------(5)---|--------------2--|--------------2-(2)-------------2-3-|
--7------(7)---|--------------2--|--------------2-(2)-------------2-3-|
--0------(0)---|--0-0-0-0-0-0-0--|--0-0-0-0-0-0-------0-0-0-0-0-0-----|
Play 4 times
Play 4 times
--------------------------------|-----------------------------------|
--------------------------------|-----------------------------------|
--------------------------------|-----------------------------------|
--------------------------------|------------------------------2-3--|
--------------2---------------2-|--------------2---------------2-3--|
--0-0-0-0-0-0-0---0-0-0-0-0-0-0-|--0-0-0-0-0-0-0---0-0-0-0-0-0------|
Dark-ness
imprisoning me all that I see absolute hor-ror
I can-not live I can-not die Trapped in my-self body my holdind cell!
------------------------------------|------------------------------------|
------------------------------------|------------------------------------|
------------------------------------|------------------------------------|
------------------------------------|------------------------------------|
--------------7-(7)-------------7-8-|-------------5-(5)-------------5/8--|
--0-0-0-0-0-0-------0-0-0-0-0-0-----|-0-0-0-0-0-0-------0-0-0-0-0-0------|
------------------------------------|------------------------------------|
------------------------------------|------------------------------------|
------------------------------------|------------------------------------|
------------------------------------|------------------------------------|
--------------7-(7)-------------7-8-|-------------5-(5)-------------5----|
--0-0-0-0-0-0-------0-0-0-0-0-0-----|-0-0-0-0-0-0-------0-0-0-0-0-0---7--|
---------------------------------|-----------------------------------|
---------------------------------|-----------------------------------|
---------------------------------|-----------------------------------|
---------------------------------|------------------------------2-3--|
--------------2---------------2--|--------------2---------------2-3--|
--0-0-0-0-0-0-0---0-0-0-0-0-0-0--|--0-0-0-0-0-0-0---0-0-0-0-0-0------|
Land-mine
has taken my sight taken my speech taken my hear-ing
Taken my arms taken my legs taken my soul left me with life in
Double-time
-----------------------------------------|
-----------------------------------------|
-----------------------------------------|
--------------2--------------2--------3--|
--------------2--------------2--------3--|
--0-0-0-0-0-0----0-0-0-0-0-0----0-0-0----|
hell!_____________
Finally:
Riff C

E5
F5
-------------------------|--------------------|
-------------------------|--------------------|
-------------------------|--------------------|
---------------2---------|--------2--------3--|
---------------2---------|--------2--------3--|
--0-0-0-0-0-0-----0-0-0--|--0-0-0----0-0-0----|
[ Play Riff C 4 times

[ fast solo (COOL !). Okay this looks hard but with a little practice .... ]
T
T
T
T
T
T
T
T
E-19p15p12--19p15p12-19p15p12-19p15p12-19p15p12-19p15p12-19p15p12-19p15p12-|
B--------------------------------------------------------------------------|
G--------------------------------------------------------------------------|
D--------------------------------------------------------------------------|
A--------------------------------------------------------------------------|
E--------------------------------------------------------------------------|
[ T := Tap using edge of pick; p := pull off finger or pick
]
T
T
T
T
T
T
T
T
E-20p15p12--20p15p12-20p15p12-20p15p12-20p15p12-20p15p12-20p15p12-20p15p12-|
B--------------------------------------------------------------------------|
G--------------------------------------------------------------------------|
D--------------------------------------------------------------------------|
A--------------------------------------------------------------------------|
E--------------------------------------------------------------------------|
T
T
T
T
T
T
T
T
E--------------------------------------------------------------------------|
B-19p15p12--19p15p12-19p15p12-19p15p12-19p15p12-19p15p12-19p15p12-19p15p12-|
G--------------------------------------------------------------------------|
D--------------------------------------------------------------------------|
A--------------------------------------------------------------------------|
E--------------------------------------------------------------------------|
T
T
T
T
T
T
T
T
E--------------------------------------------------------------------------|
B-20p15p12--20p15p12-20p15p12-20p15p12-20p15p12-20p15p12-20p15p12-20p15p12-|
G--------------------------------------------------------------------------|
D--------------------------------------------------------------------------|
A--------------------------------------------------------------------------|
E--------------------------------------------------------------------------|
T
T
T
T
T
T
T
T
E--------------------------------------------------------------------------|
B-17p13p10--17p13p10-17p13p10-17p13p10-17p13p10-17p13p10-17p13p10-17p13p10-|
G--------------------------------------------------------------------------|
D--------------------------------------------------------------------------|
A--------------------------------------------------------------------------|
E--------------------------------------------------------------------------|
T
T
T
T
T
T
T
T
E--------------------------------------------------------------------------|
B-18p13p10--18p13p10-18p13p10-18p13p10-18p13p10-18p13p10-18p13p10-18p13p10-|
G--------------------------------------------------------------------------|
D--------------------------------------------------------------------------|
A--------------------------------------------------------------------------|
E--------------------------------------------------------------------------|

T
T
T
T
T
T
T
T
T
T
T
T
E---------------------------------------|----------------------------------|
B-17p12h14-17p12-17p10-17p12-17p10-17p8-|-17p10-17p8-17p7-17p8-17p7-17p5---|
G---------------------------------------|----------------------------------|
D---------------------------------------|----------------------------------|
A---------------------------------------|----------------------------------|
E---------------------------------------|----------------------------------|
E------------------------------14-14-14-|-15-15-15--17-17-17----------------|
B-/12-12-12--12-12-12--12--12-----------|---------------------15-15-15------|
G---------------------------------------|-----------------------------------|
D---------------------------------------|-----------------------------------|
A---------------------------------------|-----------------------------------|
E---------------------------------------|-----------------------------------|
E-17-17-17-17-|-22^24-------22^24----22^24~|~~~~~~~~\---------------15-----|
B-------------|----------------------------|--------------/17--------------|
G-------------|----------------------------|-------------------------------|
D-------------|----------------------------|-------------------------------|
A-------------|----------------------------|-------------------------------|
E-------------|----------------------------|-------------------------------|
E-17p15---------------15h17p15-------------|-15h17p15-------------15h17p15--|
B--------17-15-17-19-----------17-15-17-19-|----------17-15-17-19-----------|
G------------------------------------------|--------------------------------|
D------------------------------------------|--------------------------------|
A------------------------------------------|--------------------------------|
E------------------------------------------|--------------------------------|
E-----------15-|-17p15------------15-17p15---------15h17----|
B-17-17-19-----|--------15-17-19------------17--15----------|
G--------------|--------------------------------------------|
D--------------|--------------------------------------------|
A--------------|--------------------------------------------|
E--------------|--------------------------------------------|
E-19p17p15-----19p17p15-----19p17p15------19p17p15----------|
B----------15-----------15------------15------------15------|
G-----------------------------------------------------------|
D-----------------------------------------------------------|
A-----------------------------------------------------------|
E-----------------------------------------------------------|
E-19p17--------19p17--------19p17---------19p17p15----------|
B----------15-----------15------------15--------------------|
G-----------------------------------------------------------|
D-----------------------------------------------------------|
A-----------------------------------------------------------|
E-----------------------------------------------------------|
E-------15-------15-------15-------15-|-18^19-15-------15-18^19-15-------15-|
B-18^20----18^20----18^20----18^20----|----------18^20-------------18^20----|
G-------------------------------------|-------------------------------------|
D-------------------------------------|-------------------------------------|
A-------------------------------------|-------------------------------------|
E-------------------------------------|-------------------------------------|
E-19p17p15-17----17p15----15----------|-------------------------------------|
B----------------------19-------------|-19p17p15-17-----15h17p15\13--15-----|

G-------------------------------------|-------------------------------------|
D-------------------------------------|-------------------------------------|
A-------------------------------------|-------------------------------------|
E-------------------------------------|-------------------------------------|
E------------------------------------------|--------------------------------|
B-13h15p13\12--13-----12h13p12----12-------|--------------------------------|
G------------------------------14----14p12-|-14p12----12----12--14^-14^-14^-|
D------------------------------------------|-------14----14-----------------|
A------------------------------------------|--------------------------------|
E------------------------------------------|--------------------------------|
E----------------------------|---------------------|------------------------|
B----------------------------|---------------------|------------------------|
G-14^16-14^16-----v14p12-----|-12-----12-----------|------------------------|
D-------------------------14-|----14------14-13-12-|------------------------|
A----------------------------|---------------------|-14-13-12-10~~~~~-------|
E----------------------------|---------------------|------------------------|
E---------------------------|---------------------------|-------------------|
B---------15^----------15^--|---------15^----------15^--|-17^-v-^-v-^-17^v^-|
G---------15^----------15^--|---------15^----------15^--|-17^-v---v-^-17^v^-|
D-17--17--------17--17------|-17--17--------17--17------|-------------------|
A---------------------------|---------------------------|-------------------|
E---------------------------|---------------------------|-------------------|
[ different notation : ^ := bend 1 fret up; v := release 1 fret
]
[ imho use tremolo bar for easy playing
]
E---------------------|------------------------|----------------------------|
B-v(17)-^-v--15----15-|--------15^---------15^-|-17-----17-----15^-------15-|
G-v(17)-^-v--15----15-|--------15^---------15^-|-17-----17-----15^----------|
D---------------17----|-17--17------17--17-----|----------------------------|
A---------------------|------------------------|----------------------------|
E---------------------|------------------------|----------------------------|
E-------15--------15--------15--------15-|-------15--------15--------------||
B-18^20-----18^20-----18^20-----18^20----|-18^20-----18^20-----18^20~~~~~~-||
G----------------------------------------|---------------------------------||
D----------------------------------------|---------------------------------||
A----------------------------------------|---------------------------------||
E----------------------------------------|---------------------------------||
E------------------------------------|------------------------------------|
B------------------------------------|------------------------------------|
G------------------------------------|------------------------------------|
D------------------------------------|------------------------------------|
A---------------------------5-5-5----|-5-5-5----4-4-4---3-3-3---2-2-2-----|
E-3-3-3--3-3-3--3--------------------|------------------------------------|
Riff C
E5
F5
-------------------------|--------------------|
-------------------------|--------------------|
-------------------------|--------------------|
---------------2---------|--------2--------3--|
---------------2---------|--------2--------3--|
--0-0-0-0-0-0-----0-0-0--|--0-0-0----0-0-0----|
[ Play riff C 9 times

E------------------------------------|------------------------------------|
B------------------------------------|------------------------------------|
G------------------------------------|------------------------------------|
D------------------------------------|------------------------------------|
A---------------------------5-5-5----|-5-5-5----4-4-4---3-3-3---2-2-2-----|
E-0-0-0--0-0-0--0--------------------|------------------------------------|
[ two guitars
]
E-----------------------5--5--5------|------------------7--7--7--5--------|
B-8--8--8--7^-----------7--7--7------|--8^--------5-----8--8--8--7--------|
G-9--9--9--7^----7-------------------|--8^--------------------------------|
D----------------9-------------------|------------9-----------------------|
A------------------------------------|------------------------------------|
E------------------------------------|------------------------------------|
E-7--5-----5-------5-----------------|------------------------------------|
B-8--7--8--7-------7--8--7--8--------|-8--7--5--7--------7--5-----5-------|
G-------9-------------9--7--9--------|-9--7--6--7--------7--6--7--6-------|
D------------------------------------|-------------------------9----------|
A------------------------------------|------------------------------------|
E------------------------------------|------------------------------------|
E-----------------------5--5--5------|------------------7--7--7--5--------|
B-8--8--8--7^-----------7--7--7------|--8^--------5-----8--8--8--7--------|
G-9--9--9--7^----7-------------------|--8^--------------------------------|
D----------------9-------------------|------------9-----------------------|
A------------------------------------|------------------------------------|
E------------------------------------|------------------------------------|
E-7--5-----5-------5-----------------|-8--7--5--7--------7--5-----5-------|
B-8--7--8--7-------7--8--7--8--------|-10-8--7--8--------8--7--8--7-------|
G-------9-------------9--7--9--------|-------------------------9----------|
D------------------------------------|------------------------------------|
A------------------------------------|------------------------------------|
E------------------------------------|------------------------------------|
E-----------------------5--5--5------|------------------7--7--7--5--------|
B-8--8--8--7^-----------7--7--7------|--8^--------5-----8--8--8--7--------|
G-9--9--9--7^----7-------------------|--8^--------------------------------|
D----------------9-------------------|------------9-----------------------|
A------------------------------------|------------------------------------|
E------------------------------------|------------------------------------|
E-7--5-----5-------5-----------------|------------------------------------|
B-8--7--8--7-------7--8--7--8--------|-8--7--5--7--------7--5-----5-------|
G-------9-------------9--7--9--------|-9--7--6--7--------7--6--7--6-------|
D------------------------------------|-------------------------9----------|
A------------------------------------|------------------------------------|
E------------------------------------|------------------------------------|
E-----------------------5--5--5------|------------------7--7--7--5--------|
B-8--8--8--7^-----------7--7--7------|--8^--------5-----8--8--8--7--------|
G-9--9--9--7^----7-------------------|--8^--------------------------------|
D----------------9-------------------|------------9-----------------------|
A------------------------------------|------------------------------------|
E------------------------------------|------------------------------------|
E-7--5-----5-------5-----------------|------------------------------------|
B-8--7--8--7-------7--8--7--8--------|-8--7--5--7--------7--5-----5-------|
G-------9-------------9--7--9--------|-9--7--6--7--------7--6--7--6-------|

D------------------------------------|-------------------------9----------|
A------------------------------------|------------------------------------|
E------------------------------------|------------------------------------|
E------------------------------------|------------------------------------|
B-5----------------------------------|------------------------------------|
G-6--7--6--7-------7--6--4--6--------|-6--4--2--4--------4--2--0--2-------|
D----9--7--9-------9--7--5--7--------|-7--5--4--5--------4--2--0--2-------|
A------------------------------------|------------------------------------|
E------------------------------------|------------------------------------|
[ two guitars

Riff C
E5
F5
-------------------------|--------------------|
-------------------------|--------------------|
-------------------------|--------------------|
---------------2---------|--------2--------3--|
---------------2---------|--------2--------3--|
--0-0-0-0-0-0-----0-0-0--|--0-0-0----0-0-0----|
[ Play riff C 4 times

G5
-------------------------|--------------------|
-------------------------|--------------------|
-------------------------|--------------------|
-------------5--------5--|--------5--------5--|
-------------5--------5--|--------5--------5--|
--3-----3----3--3--3--3--|--3--3--3--3--3--3--|
E5
F5
-------------------------|--------------------|
-------------------------|--------------------|
-------------------------|--------------------|
---------------2---------|--------2--------3--|
---------------2---------|--------2--------3--|
--0-0-0-0-0-0-----0-0-0--|--0-0-0----0-0-0----|
G5
-------------------------|--------------------|
-------------------------|--------------------|
-------------------------|--------------------|
-------------5--------5--|--------5--------5--|
-------------5--------5--|--------5--------5--|
--3-----3----3--3--3--3--|--3--3--3--3--3--3--|
E5
F5
-------------------------|--------------------|
-------------------------|--------------------|
-------------------------|--------------------|
---------------2------2--|--------3--------3--|
---------------2------2--|--------3--------3--|
--0-0-0-0-0-0---------0--|--1--1--1--1--1--1--|
[ play this 2 bars 3 times
]
E5
G5
-------------------------|--------------------|--------------------|
-------------------------|--------------------|--------------------|

-------------------------|--------------------|--------------------|
---------------2------2--|--------5--------5--|--------5--------5--|
---------------2------2--|--------5--------5--|--------5--------5--|
--0-0-0-0-0-0---------0--|--3--3--3--3--3--3--|--3--3--3--3--3--3--|
E5
F5
-------------------------|--------------------|
-------------------------|--------------------|
-------------------------|--------------------|
---------------2---------|--------2--------3--|
---------------2---------|--------2--------3--|
--0-0-0-0-0-0-----0-0-0--|--0-0-0----0-0-0----|
E5
E------------------------------------|-----------------------------------||
B------------------------------------|-----------------------------------||
G------------------------------------|-----------------------------------||
D--2-2-2--2-2-2--2------------2-2-2--|--2-2-2--2-------------------------||
A--2-2-2--2-2-2--2------------2-2-2--|--2-2-2--2-------------------------||
E--0-0-0--0-0-0--0------------0-0-0--|--0-0-0--0-------------------------||
-=-=-=-=-=-=-=-=-=-=-=-=-=-=-=-=-=-=-=-=-=-=-=-=-=-=-=-=-=-=-=-=-=-=-=
Original source : INTERNET: A.McCormack@zippy.dct.ac.uk
Additional source : Metallica - ... and justice for all tab book
Published by Cherry Lane Music Company Inc, ISBM : 0-89524-419-5
Linked together by C.w.g.m.Enders@kub.nl
For nice tab lines try, get in a simtel archive /simtel/music newtab.zip
=-=-=-=-=-=-=-=-=-=-=-=-=-=-=-=-=-=-=-=-=-=-=-=-=-=-=-=-=-=-=-=-=-=-=Greetings,
_____
_____
|
| | _ |
| ---| | _|-|
|_____|* |_____|*
Build a system that even a fool can use and only a fool will use it.
#----------------------------------PLEASE NOTE--------------------------------#
#This file is the author's own work and represents their interpretation of the #
#song. You may only use this file for private study, scholarship, or research. #
#------------------------------------------------------------------------------#
#
Date: Fri, 27 Oct 1995 17:17:40 -0500 (CDT)
From: gregh@tcs.itis.com (Greg and or Paul Halvorson)
Subject: The Shortest Straw by Metallica
The Shortest Straw
From Metallica's ...And Justice For All album.
Tabbed by Paul Halvorson
pm pm
pm pm
pm pm
-------------------------------------------------------------------------------|
-------------------------------------------------------------------------------|
-------------------------------------------------------------------------------|
-2---2-----2---------2---2-----2--2--2------2---2-----2------------------------|
-2---2-----2---------2---2-----2--2--2------2---2-----2------------------------|
-0---0-----0---------0---0-----0--0--0------0---0-----0-----3-----5------------|

pm pm
pm pm
pm pm
-------------------------------------------------------------------------------|
-------------------------------------------------------------------------------|
-------------------------------------------------------------------------------|
-2---2-----2---------2---2-----2--2--2------2---2-----2------------------------|
-2---2-----2---------2---2-----2--2--2------2---2-----2------------------------|
-0---0-----0---------0---0-----0--0--0------0---0-----0-----5-----3------------|
pm pm
pm pm
pm pm
-------------------------------------------------------------------------------|
-------------------------------------------------------------------------------|
-------------------------------------------------------------------------------|
-2---2-----2---------2---2-----2--2--2------2---2-----2------------------------|
-2---2-----2---------2---2-----2--2--2------2---2-----2------------------------|
-0---0-----0---------0---0-----0--0--0------0---0-----0-----3-----5------------|
pm pm
pm pm
pm pm
-------------------------------------------------------------------------------|
-------------------------------------------------------------------------------|
-------------------------------------------------------------------------------|
-2---2-----2---------2---2-----2--2--2------2---2-----2------------------------|
-2---2-----2---------2---2-----2--2--2------2---2-----2------------------------|
-0---0-----0---------0---0-----0--0--0------0---0-----0-----3--3--3--3---------|
pm pm
-----------------------|-------------------------------------------------------|
-----------------------|-------------------------------------------------------|
-----------------------|-------------------------------------------------------|
-2---2-----2-----------|-------------------------------------------------------|
-2---2-----2-----------|-------------------------------------------------------|
-0---0-----0-----3--3--|-------------------------------------------------------|
Riff #1
---------------------------------------------------|---------------------------|
---------------------------------------------------|---------------------------|
---------------------------------------------------|---------------------------|
-------8--7/8--------------------------------3--3--|---------------------------|
----7----------7-----------------------------3--3--|---------------------------|
-0----------------------0--0--0--0--0--0--0--1--1--|---------------------------|
Riff played right before verse
Riff during verses
--------------------------------|----------------------------------------------|
--------------------------------|----------------------------------------------|
-------3--2--3--0---------------|----------------------------------------------|
----2---------------------------|-----------------------------3--3-------------|
--------------------------------|-----------------------------3--3-------------|
-0------------------------------|--------0--0--0--0--0--0--0--1--1-----0--0----|
---------------------------------------------------------------------|---------|
---------------------------------------------------------------------|---------|
---------------------------------------------------------------------|---------|
---------------5--5--------------------------------------------------|---------|
---------------5--5--------------------------------------------------|---------|

0--0--0--0--0--3--3-----0--0--0--0--0--0--0-----5-----3-----1--------|---------|
-------------------------------------------------------------------------------|
-------------------------------------------------------------------------------|
-------------------------------------------------------------------------------|
------------------------5--5--------------------------------------7--7---------|
------------------------5--5--------------------------------------7--7---------|
2--2--2--2--2--2--2-----3--3--------------2--2--2--2--2--2--2-----5--5---------|
-------------------------------------------------------------------------------|
-------------------------------------------------------------------------------|
-------------------------------------------------------------------------------|
------------------------5--5---------------------------------------------------|
------------------------5--5---------------------------------------------------|
2--2--2--2--2--2--2-----3--3--------------2--2--2--2-----7--5--3---------------|
============================================================================
==
==
TABLATURE
EXPLANATION
==
===============================================================================
-------------5h8--- Hammero n
-------------5p8--- Pulloff

-----------|
----(8)--------------------| Ghost Note
-----------|
------------------|

The Shortest Straw


From Metallica's ...And Justice For All album.
Tabbed by Paul Halvorson
pm pm
pm pm
pm pm
-------------------------------------------------------------------------------|
-------------------------------------------------------------------------------|
-------------------------------------------------------------------------------|
-2---2-----2---------2---2-----2--2--2------2---2-----2------------------------|
-2---2-----2---------2---2-----2--2--2------2---2-----2------------------------|
-0---0-----0---------0---0-----0--0--0------0---0-----0-----3-----5------------|
pm pm
pm pm
pm pm
-------------------------------------------------------------------------------|
-------------------------------------------------------------------------------|
-------------------------------------------------------------------------------|
-2---2-----2---------2---2-----2--2--2------2---2-----2------------------------|
-2---2-----2---------2---2-----2--2--2------2---2-----2------------------------|
-0---0-----0---------0---0-----0--0--0------0---0-----0-----5-----3------------|
pm pm
pm pm
pm pm
-------------------------------------------------------------------------------|
-------------------------------------------------------------------------------|
-------------------------------------------------------------------------------|
-2---2-----2---------2---2-----2--2--2------2---2-----2------------------------|
-2---2-----2---------2---2-----2--2--2------2---2-----2------------------------|
-0---0-----0---------0---0-----0--0--0------0---0-----0-----3-----5------------|
pm pm

pm pm

pm pm

-------------------------------------------------------------------------------|
-------------------------------------------------------------------------------|
-------------------------------------------------------------------------------|
-2---2-----2---------2---2-----2--2--2------2---2-----2------------------------|
-2---2-----2---------2---2-----2--2--2------2---2-----2------------------------|
-0---0-----0---------0---0-----0--0--0------0---0-----0-----3--3--3--3---------|
pm pm
-----------------------|-------------------------------------------------------|
-----------------------|-------------------------------------------------------|
-----------------------|-------------------------------------------------------|
-2---2-----2-----------|-------------------------------------------------------|
-2---2-----2-----------|-------------------------------------------------------|
-0---0-----0-----3--3--|-------------------------------------------------------|
Riff #1
---------------------------------------------------|---------------------------|
---------------------------------------------------|---------------------------|
---------------------------------------------------|---------------------------|
-------8--7/8--------------------------------3--3--|---------------------------|
----7----------7-----------------------------3--3--|---------------------------|
-0----------------------0--0--0--0--0--0--0--1--1--|---------------------------|
Riff played right before verse
Riff during verses
--------------------------------|----------------------------------------------|
--------------------------------|----------------------------------------------|
-------3--2--3--0---------------|----------------------------------------------|
----2---------------------------|-----------------------------3--3-------------|
--------------------------------|-----------------------------3--3-------------|
-0------------------------------|--------0--0--0--0--0--0--0--1--1-----0--0----|
---------------------------------------------------------------------|---------|
---------------------------------------------------------------------|---------|
---------------------------------------------------------------------|---------|
---------------5--5--------------------------------------------------|---------|
---------------5--5--------------------------------------------------|---------|
0--0--0--0--0--3--3-----0--0--0--0--0--0--0-----5-----3-----1--------|---------|
-------------------------------------------------------------------------------|
-------------------------------------------------------------------------------|
-------------------------------------------------------------------------------|
------------------------5--5--------------------------------------7--7---------|
------------------------5--5--------------------------------------7--7---------|
2--2--2--2--2--2--2-----3--3--------------2--2--2--2--2--2--2-----5--5---------|
-------------------------------------------------------------------------------|
-------------------------------------------------------------------------------|
-------------------------------------------------------------------------------|
------------------------5--5---------------------------------------------------|
------------------------5--5---------------------------------------------------|
2--2--2--2--2--2--2-----3--3--------------2--2--2--2-----7--5--3---------------|
===============================================================================
==
TABLATURE EXPLANATION
==
===============================================================================

-------------5h8--- Hammeron
-------------5p8--- Pulloff

-----------|
----(8)--------------------| Ghost Note
-----------|
------------------|

-------------5/8--- Slide Up
-------------5\8--- Slide Down

-----------|
-----x--------------| Dead Note
-----------|
-----------------------|

-------------5~~~-- Vibrato
-------------------

||---------| Repeat Start & End


||*----*-------------|
||*----*---|
||---------|

Rhythm:
w = whole note
h = half note
q = quarter note
e = eighth note
s = sixteenth note
^ = triplet

W
H
Q
E
S

=
=
=
=
=

dotted
dotted
dotted
dotted
dotted

whole
half
quarter
eighth
sixteenth

===============================================================================
==
Created with a shareware version of the BUCKET 'O TAB
==
==
tablature creation software for Windows
==
==
For more information:
==
==
email: gse@ocsystems.com
==
==
US Mail: The Bucket, 3176-B5 Summit Square Dr., Oakton, VA 22124
==
===============================================================================
#----------------------------------PLEASE NOTE--------------------------------#
#This file is the author's own work and represents their interpretation of the #
#song. You may only use this file for private study, scholarship, or research. #
#------------------------------------------------------------------------------#
#
From: musi+@pitt.edu (Greg Musi)
Subject: Re: REQ: TAB To live is to die , by Metallica
"To Live is to Die" by: Metallica
====================================

(transcribed by: Michael Alford)

I will first give the following "Rhythm Figures", then list the order in
which they come.
Rhy. Fig. 1*
H P
**harm
-7----(7-------------------(7-----10-|-10-----10---------------------0-0--12-|
-7----)7--7-----------7----)7-----8--|-10---------------7-8-7^8^7----0-0--0--|
-7--7-(7-----7-----7-------(7--------|-11--------11-----7-7-7-----9--9-11-9--|
-9--9-----9----------------)9--------|-12--12--------------------------------|
-9-----------------------------------|-12------------12----------------------|
-7--------------7--------7-----7-----|-10------------------------------------|
*2 gtrs. arr. for 1
**harm. on 1st string only
sl.
sl.
H P
-----------------7--7--/12-|--12-----12----------8--7--10-7^10^7--|
-----------8--8------------|--12---------12--12--0--5--0-------7--|

-----------9--9--7--7--/9--|--12---------9---9---0-----0----------|
---------------------------|--14--14-----9------------------------|
----/9--7------------------|--14---------10-----------------------|
--0------------------------|--0---0-------------------------------|
(end Rhy. Fig. 1)
Rhy. Fig. 2
------------------|----------------|------------------|-----------------|
-2--2\--x-x-------|-3--3--x-x--3\2-|-2--2\--x-x-------|-5--5---5\3--3\2-|
-3--3\--x-x-------|-4--4--x-x--4\3-|-3--3\--x-x-------|-6--6-x-6\4--4\3-|
-4--4\--x-x--2--4-|-5--5--x-x--5\4-|-4--4\--x-x--2--4-|-7--7-x-7\5--5\4-|
-4--4\--x-x--2--4-|-5--5--x-x--5\4-|-4--4\--x-x--2--4-|-7--7---7\5--5\4-|
-2--2\-------0--2-|-3--3-------3\2-|-2--2\-------0--2-|-5--5---5\3--3\2-|
(end Rhy. Fig. 2)
Rhy. Fig. 3
---------------------------|-----|---------------------|
---------------------------|-----|---------------------|
---------------------------|--%--|---------------------|
---------------------------|-----|---------------------|
--4-4-4-5-5-5-4-4-4-7-7-7--|-----|--4-5-4-7-4-5-4-7----|
--2-2-2-3-3-3-2-2-2-5-5-5--|-----|--2-3-2-5-2-3-2-5----|
pm----------------------------------------------------|

pm pm pm pm

-------------------------------------|
-------------------------------------|
-------------------------------------|
-------------------------------------|
-------------------------------------|
--2-3-2-5-2-3-2-5-2-3-2-5-2^3-2^3----|
pm----------------------------------|
(end Rhy. Fig. 3)
Rhy. Fig. 4
------------------|------------------|------------------|---------|
------------------|------------------|------------------|---------|
--11\-6-----4--6--|--7\--4-----4--6--|--6\--3-----3--3--|--2------|
------------------|------------------|------------------|---------|
--9\--4-----2--4--|--5\--2-----2--4--|--4\--1-----1--1--|--0------|
------------------|------------------|------------------|---------|
(end Rhy. Fig. 4)
Rhy. Fig. 5
-----------------------|--------|--------------------|
-----------------------|--------|--------------------|
-----------------------|-----2--|--------------------|
--------2-----5--4--2--|-----2--|-----x--x--6--4--4--|
--4--4--0--4--3--2--0--|--4--0--|--4--x--x--4--3--2--|
--2--2-----2-----------|--2-----|--2--x--x-----------|
pm---| pm
pm
pm
-----------------------|-------------|--------------------|
-----------------------|-------------|--------------------|
-----------------------|----------2--|--------------------|

--------2-----5--4--2--|----x-x-x-2--|-----x--x--6--4--4--|
--4--4--0--4--3--2--0--|--4-x-x-x-0--|--4--x--x--4--3--2--|
--2--2-----2-----------|--2-x-x-x----|--2--x--x-----------|
pm---| pm
pm
pm
Rhy. Fig. 6
full ~~~~~~~ full ~~ rake full ~~~~ ~~~
~~~~ H P sl. H P
---/\-------|-------/\-------|-------/\-----------------|---------------------|
-5' `--2---|-----6' `--3---|-x/--5' `(5)--2----------|---------------------|
------------|----------------|------------------------2-|-2---2^4^2\1-1^2^1---|
----------4-|-(4)----------5-|------------------4--4----|-------------------4-|
------------|----------------|--------------------------|---------------------|
------------|----------------|--------------------------|---------------------|
(end Rhy. Fig.6)
Rhy. Fig. 7
Am
E
G
E
Em
E
F F G
Am
C
G D C
1 1 1
1 1 1
1 1 1
1 1 1
1 1 1
1 1 1
2 8 8
2 8 8
2 8 8
4. 8 4
2 8 8
2 8 8
| -----------|--3--3-----|--0--0-----|--1--------|-----------|--3--------|
| --5--5-----|--3--3-----|--0--0-----|--1--------|--5--5-----|--3--------|
|:--5--5-----|--4--4-----|--0--0-----|--2--------|--5--5-----|--4--------|
| --7--7-----|--5--5-----|--2--2-----|--3--------|--7--7-----|--5--------|
| --7--7-----|--5--5-----|--2--2-----|--3--------|--7--7-----|--5--5--3--|
| --5--5--0--|--3--3--0--|--0--0--0--|--1--1--3--|--5--5--8--|--4--------|
pm
pm
pm
pm
pm
pm---|
|| 2.
G
1 1 R
2 8 8
~~~
--0--0--0-----|--3--3--3--3-- ||--3--3-----|
--0--0--0-----|--3--3--3--3-- ||--3--3-----|
--0--0--0-----|--4--4--4--4--:||--4--4-----|
--2--2--2-----|--5--5--5--5-- ||--5--5-----|
--2--2--2--5--|--5--5--5--5-- ||--5--5-----|
--0--0--0-----|--3--3--3--3-- ||--3--3-----|
(end Rhy. Fig. 7)
Em
D
1 1 1 1
4. 8 8 8

1.
G
1 1 1 1
4. 16 16 4

Rhy. Fig. 8
Am
G
Em
Dm/F
---------------------|-----------------|-----------------|-------------|
--1--------0^1^0-----|--0--------------|-----------------|-------------|
-----2------------2--|-----2-----0-----|--0--------0-----|--0^2--------|
--------2------------|-----------------|-----2-----------|-------0-----|
--0------------------|-----------------|--------2--------|----------0--|
---------------------|--3-----3-----3--|--0-----------0--|--1----------|
Am
G
Em
G
-----------------|-----------------|-----------------|-----------------|
--1--------3-----|--3-----0--------|--------------0--|-(0)-------3-----|
-----2-----------|-----------0-----|--0--------0-----|--0--------------|
--------2--------|-----------------|-----2-----------|-----0-----------|
--0--------------|-----------------|--------2-----2--|--------2-----0--|
--------------0--|--3--3--------0--|--0--------------|--3--------------|

(end Rhy. Fig. 8)


Rhy. Fig. 9
1 1
1 1
4 2
4 4
-----------------|
--2--2-----2--2--|
--3--3-----3--3--|
--4--4-----4--4--|
--4--4-----4--4--|
--2--2-----2--2--|
Rhy.
Rhy.
Rhy.
Rhy.
Rhy.

Fig.
Fig.
Fig.
Fig,
Fig.

1
2
3
2
3

Rhy.
Rhy.
Rhy.
Rhy.

Fig.'s
Fig. 5
Fig.'s
Fig. 3

(3-1/2 times)
(3 times)
(once)
(2 times)
(once)
2 & 4 (simultaneously, 2 times each)
(once)
2 & 6 (simultaneously, 2 times each)
(once)

Rhy. Fig. 2 (2 times) }


Rhy. Fig. 3 (once)
}-1st solo
Rhy. Fig. 2 (2 times) }
Then play:
full
~~~~

full

~~~~

full

~~~~

full P
H P P
/\
----/\---------|----/\---------|----/\-----------|--3' `(3)^0--------|----|
--5' `--2-----|--6' `--3-----|--3' `(3)^0-----|--------------------|----|
---------------|---------------|-----------------|--------------2^4^2^|^0--|
------------4--|------------5--|--------------2--|--------------------|----|
---------------|---------------|-----------------|--------------------|----|
---------------|---------------|-----------------|--------------------|----|
w/ Rhy. Fig. 7
H ~~~ H
H P ~~~~~
sl.~~~~~
~~~~~~~~
------------------|-------------|-----------------|----------|
------------------|-------------|-----------------|----------|
--4^5----4^5--4^5^|^4-----------|-----------------|----------|
------------------|-------7--5--|--7\5-----5-5-5--|--7-------|
------------------|-------------|-----------------|----------|
------------------|-------------|-----------------|----------|
H ~~~~~
~~~~~
-------------------|---------------|------------------|-----|
-------------------|---------------|------------------|-----|
--4^5--5-----5--7--|--7------4-----|---------------4--|--%--|
-------------------|------------5--|--5-----5-5-5-----|-----|
-------------------|---------------|------------------|-----|
-------------------|---------------|------------------|-----|

H
H
H P ~~~~~
~~~~~
~~~~~~~~
------------------|-------------|---------------|----------|
--3^5----3^5--3^5^|^3-----------|---------------|----------|
--4^5----4^5--4^5^|^4-----5--4--|--4-------4-4--|--5-------|
------------------|-------7--5--|--5-------5-5--|--7-------|
------------------|-------------|---------------|----------|
------------------|-------------|---------------|----------|
H
~~~~~
~~~~~~
----------3--|--3-----------|-----------------|----------|
--3^5--5--5--|--5-----3-----|--------------5--|--3-------|
--4^5--5-----|--------4--4--|--4-----4-4-4-4--|--4-------|
-------------|-----------5--|--5-----5-5-5----|--5-------|
-------------|--------------|-----------------|----------|
-------------|--------------|-----------------|----------|
play Rhy. Fig. 8 alone (once), then
w/ Rhy. Fig. 8(2 times)
1.
|| 2.
|| 3.
|| 4.
~~~~~
~~~~~
~~~~~
~~~~~
~~~~~
~~~~~
~~~~~
| ---------|---------|---------|--------- ||--------- ||--------- ||---------|
| ---------|---------|---------|--------- ||--------- ||--------- ||---------|
|:--5------|--7------|---------|---------:||--4------:||---------:||--4------|
| ---------|--5------|--5------|--7------ ||--------- ||--5------ ||---------|
| --7------|---------|---------|--------- ||--5------ ||--------- ||--5------|
| ---------|---------|--7------|--8------ ||--------- ||--7------ ||---------|
w/Rhy. Fig. 8 (2 times)
H~~~~
sl.
H P
H
P
sl.~~~ H
-----------------|-----------------|--------------------|---------------------|
-------------^---|-----------------|--------------------|---------------------|
--7^9----9--7\5--|--5^7^4--2--0^2--|--4--5--5--4--0--5--|--5^4----------------|
-----------------|-----------------|--------------------|-------5--5/7---5^7--|
-----------------|-----------------|--------------------|---------------------|
-----------------|-----------------|--------------------|---------------------|
sl. sl. sl.
H
~~~
H P
sl. sl.
H P
~~~ H P
-------------------------|-----------------|-----------------|------------|
---^-----^---------------|-----------------|--^---^----------|------------|
--4/5-5-5/7-7-7/9-9-9^10-|-9---9-10-9^10^9-|-7\5-5\4---4^5^4-|------------|
-------------------------|-----------------|---------5-------|-5---5^7^5--|
-------------------------|-----------------|-----------------|------------|
-------------------------|-----------------|-----------------|------------|
H~~~
H P
H P
sl. ~~~
full
1/2
sl.
----------------------|---------------------|--------------|----------------|
----------------------|------------------^--|----------/\--|----------------|
-------------4^5^4----|-4^5^4--4--5--7--7/9-|-7---9--9' `-|-7---/\------^--|
-5^7---7--7---------5-|---------------------|--------------|---9' `-7--5/9-|
----------------------|---------------------|--------------|----------------|
----------------------|---------------------|--------------|----------------|
pm-|
H~~~~
H P
H
~~~~ H P
H P
------------------------------|-------------------------------------|

-----------------12^13^12-----|-12^13--12----12^15^12--12^13^12-----|
-12^14---14--14------------12-|----------------------------------12-|
------------------------------|-------------------------------------|
------------------------------|-------------------------------------|
------------------------------|-------------------------------------|
~~~~
P
full
----------------------|--------------------------|
------------13^12-----|------15--13--12-----/\---|
--12----12--------12--|--12--------------14' `--|
----------------------|--------------------------|
----------------------|--------------------------|
----------------------|--------------------------|
w/ Rhy. Fig. 7(1st 1/2 only, 2 times)
H P
~~~~
sl.~~~
~~~~
------------|----------|------------|--------|---------------|------------|
------------|----------|------------|--------|---^-----------|------------|
--5--5--4^5^|^4--------|------------|--------|--4/5----5--7--|--7---4-----|
------------|----7--5--|--5----5-5--|--7-----|---------------|---------5--|
------------|----------|------------|--------|---------------|------------|
------------|----------|------------|--------|---------------|------------|
H~~~~ H
H P ~~~~
~~~~
~~~~~
--------------|---|------------------|------------|------------|---------|
--------------|---|--3^5----3^5--3^5^|^3----------|------------|---------|
------------4-|-%-|--4^5----4^5--4^5^|^4----5--4--|--4----4-4--|--5------|
--5---5-5-5---|---|------------------|------7--5--|--5----5-5--|--7------|
--------------|---|------------------|------------|------------|---------|
--------------|---|------------------|------------|------------|---------|
H~~~~
~~~~
~~~~
------------3--|--3---------|----------------|----------------|
--3^5----5--3--|--3--3------|-------------5--|-------------3--|
--4^5----5-----|-----4---4--|--4----4-4-4-4--|--4----4-4-4-4--|
---------------|---------5--|--5----5-5-5----|--5----5-5-5----|
---------------|------------|----------------|----------------|
---------------|------------|----------------|----------------|
In the folloing, one guitar plays the chords listed above the tab, while
another plays the tab.
60str.0 3
A5
E G
|: 1
1 1 1
%
1
1 1 1 1 1 1 1 1
%
:|
4.
8 8 8
4.
8 8 8 4 8 8 8 8
| --------------|-------------|-3-------3---|-------------|--^---------- |
|.--------------|-5------5----|-5--5--5-5-5-|-3---3-3-3-5-|-5/6--6-6-8--.|
|.--5-----------|-5--5---5----|----5--5---5-|-4---4-4-4-5-|-5/7--7-7-9--.|
| --7--7----7---|----7--------|-------------|-5---5-5-----|------------- |
| -----7----7---|-------------|-------------|-------------|------------- |
| --------------|-------------|-------------|-------------|------------- |
6str.
2
B5
F#
1 1 1 1

5str.
0
A
1

B5
1

6str.
2 4
F# G# A
1 1 1 1 1

1 1 1 1

1 1 1 1 1 1

8 4 8 8 8
%
4 8 8 8 8 4 8 8 8 8
8 8 8 8 8 8
~~~
~~~
pm-| ~~~~~
sl.~~~~
--------------|-----------|-5-------5---|-------------|--^-------------|
--------------|-7------7--|-7-7---7-7-7-|-5-----5-5-7-|-7/8-----8-8-10-|
--7-------7---|-7-7--7-7--|---7---7---7-|-6-----6-6-7-|-7/9-----9-9-11-|
--9-9---9-9---|---9--9----|-------------|-------------|----------------|
----9---9-----|-----------|-------------|-------------|----------------|
--------------|-----------|-------------|-------------|----------------|
B5
1 1 1 1 1
%
1
1 1 1
%
%
8 4 8 8 8
4.
8 8 8
--------------|------------|--------------|--------------|--------------|
--------------|-7------7---|--------------|--------------|--7-------7---|
--7-------7---|-7-7--7-7-7-|--7-------7---|--7-------7---|--7-7---7-7-7-|
--9-9---9-9-9-|---9--9---9-|--9-9---9-9-9-|--9-9---9-9-9-|--9-9---9-9-9-|
----9---9---9-|------------|----9---9---9-|----9---9---9-|----9---9---9-|
--------------|------------|--------------|--------------|--------------|
B5
F#5^^^^^^^^^^^^^^^^^^^^^^^^^^^^^^^^^^^^^^^^^^^^^^^^^^^
1
1 1 1 1
1
1
sl.
1
4.
8 8 8 2.
sl.
2.
2.
^
2.
--7-------7---|---------------------|--------|--9--9--9-----9/10-|--(9)---|
--7-7---7-7-7-|-----------------^---|-11-----|--11-11-11---11/12-|--(10)--|
--7-7---7-7-7-|-11---11-11-11-11/12-|-11-----|-------------------|--------|
--9-9---9-9-9-|-11---11-11-11-11/12-|-11-----|-(11)--------------|--(11)--|
----9---9---9-|-9----9--9--9-----9--|-9------|-(9)---------------|--(9)---|
--------------|---------------------|--------|-------------------|--------|
Now, finally, the spoken part comes in. Play Rhy. Fig. 2 twice during this
part.
Spoken part:
When a man lies, he murders some part of the world.
These are the pale deaths which men miscall their lives.
All this I cannot bear to witness any longer.
Cannot the kingdom of salvation take me home?
F#5
G5
F#5
A5 sl.G5 sl.F#5
1 1 1 1 1
1
1 1
1 1
4 4 4 8 8 sim.
2
8\8
8\8
full
full
ful ~~
H P sl. H P
---/\-------------|---/\-------------|---/\-----------|---------------------|
-5' `2-----------|-6' `3-----------|-5' `(5)-2-----|---------------------|
------------------|------------------|--------------2-|-2---2^4^2\1 1^2^1---|
--------4-4-4^2---|--------5 5^4^2---|------------4---|-------------------4-|
----------------4-|----------------4-|----------------|---------------------|
------------------|------------------|----------------|---------------------|
F#5
G
1
1
1
1
1
R 1
2
4
2
4
4.
8 4 w/Rhy. Fig. 2(2 times)
full
~~~~ full
~~~~ full P ~~~~
----/\---------|----/\---------|----/\-----------|---------|------------|
--5' `--2-----|--6' `--3-----|--3' `(3)^0-----|---------|------------|
---------------|---------------|-----------------|---------|----REST----|
------------4--|------------5--|--------------2--|--4------|-----7------|
---------------|---------------|-----------------|-----7\--|--MEASURES--|
---------------|---------------|-----------------|---------|------------|

Rhy. Fig. 9(3 times)


Rhy. Fig. 9(4 times, fading out) & Rhy. Fig. 1(once, fading in)
Rhy. Fig. 1(1-1/2 times)
Segue to "Dyer's Eve"