You are on page 1of 2

Intro:

Play Riff 1
e|------------------|--------------|
B|---------2--3--2--|--------------|
G|-----4------------|--4----2-2----| 3X with
D|--4---------------|--------------|
A|------------------|--------------|
E|------------------|--------------|
Repeat "riff 1" 2X (in the second time guitar

|--0--|
|--0--|
|--4--| in the
|--4--| end
|--2--|
|-----|
two ends with Gm)

The next follow by guitar 1 playing 1X:


Gsus4 C F
Gsus4 C F
Do Do Do Do Do Do Do

Gsus4 C F Gm Gsus4

And guitar 2 playing:


Gsus4 C F
Gsus4 C F
Do Do Do Do Do Do Do

Gsus4 C F Dm Gsus4

G5
We don't serve your country
Don't serve your king
Know your custom don't speak your tongue
White man came took everyone
Riff 2
e|--0--|------------------|--------------|
B|--0--|---------2--3--2--|--------------|
G|--4--|-----4------------|--4----2-2----| 2X
D|--4--|--4---------------|--------------|
A|--2--|------------------|--------------|
E|-----|------------------|--------------|
G5
We don't serve your country
Don't serve your king
White man listen to the songs we sing
White man came took everything
Riff 2
Chorus
Gm
F
Eb
We carry in our hearts the true country
Dm
Bb F/A
And that cannot be stolen
Gm
F
Eb
We follow in the steps of our ancestry
Dm
F
Bb F/A
And that cannot be broken
Riff 2
Repeat the first verse
Riff 2
Riff 2
G5
We don't need protection
Don't need your land
Keep your promise on where we stand

We will listen we'll understand


Riff 2
Chorus (twice) with G5 in the end
Riff 1
Till the end guitar 1 play:
Gsus4 C F
Gsus4 C F
And guitar 2 play:
Em
Dm Em
G5
||||||
||||||
1|||||
||||||
|34|||
.xxx

Dm

Gsus4
F/A
|||||| 3||1|||
||||||
||||||
1=====
2||3||
||||||
||||4|
|234||
||||||
.

Gsus4 C F Gm Gsus4
Em

Dm

Gm