Вы находитесь на странице: 1из 6

ulli bgershausen

dear mr president
http://www.boegershausen.com
http://www.youtube.com/watch?v=Z_C3_Sd8elM
capo 3th fret
||-----------------------------------------------------------------|
||----------3---3-------3---3---------------3---3------------------|
||----------0h2-0h2-----2p0-2p0-------------0h2-0h2----------------|
||------0-----------------------0-------0--------------------------|
||-----------------------------------------------------------------|
||--3-------------------------------2---------------2---2---2---2--|
( 1 + 2 + 3 + 4 | 1 + 2 + 3 + 4 + )
|-----------------------------------------------------------------|
|----------3---3-----------3---------------3---3------------------|
|----------0h2-0h2---------0h20------------0h2-0h2----------------|
|------------------------------2p0-----0--------------------------|
|------2-----------------2----------------------------------------|
|--0-------------------------------2---------------2---2---2---2--|
( 1 + 2 + 3 + 4 | 1 + 2 + 3 + 4 + )
|-----------------------------------------------------------------|
|----------3---------0-------------------------0------------------|
|----------0h2-2-0-2---2-------------0h2h0-2-----2----------------|
|------0-----------------------------0----------------------------|
|-----------------------------------------------------------------|
|--3---------------3-------3---3---2---------------2---2---2---2--|
( 1 + 2 + 3 + 4 | 1 + 2 + 3 + 4 + )
|-----------------------------------------------------------------|
|----------3---3-----------3---------------3---3-----------3-0----|
|----------0h2-0h2---------0h20------------0h2-0h2-------------2-0|
|------------------------------2p0-----0--------------------------|
|------2-----------------2----------------------------------------|
|--0-------------------------------2---------------------2--------|
( 1 + 2 + 3 + 4 | 1 + 2 + 3 + 4 + )
|-----------------------------------------------------------------|
|----------------0-----------------------------0------------------|
|----------0h2-----2-0-0---------------2-0-2-2---2---------------0|
|------0-------------------------------0---------------------0h2--|
|-----------------------------------------------------------------|
|--3-----------------------3---3---2-------2-------2---2---2------|
( 1 + 2 + 3 + 4 | 1 + 2 + 3 + 4 + )
|-----------------------------------------------------------------|
|----------------0-----------------------------0------------------|
|------2---2-------2-0-0---------0-----2---2-----2----------------|
|----------2-------------------2-------0---0----------------------|
|--------------------------------------------------------------0-2|
|--0---------------0-------0-------2-------2-------2---2---2------|
( 1 + 2 + 3 + 4 | 1 + 2 + 3 + 4 + )
|-----------------------------------------------------------------|

|----------1-0---1---0---1---0---1-----0-------0-------3---3---3--|
|----------0---0-------0-------0-------0-----0---------2---2---2--|
|------2-----------------------------------4-----------0---0---0--|
|--3---------------0-----------------------2-----------x---x---x--|
|----------------------------------3---------------2---2---2---2--|
( 1 + 2 + 3 + 4 | 1 + 2 + 3 + 4 + )
|-----------------------------------------------------------------|
|----------1-0---1---0---1---0---1-----0-------0-------3---3---3--|
|----------0---0-------0-------0-------0-----0---------2---2---2--|
|------2-----------------------------------4-----------0---0---0--|
|--3---------------0-----------------------2-----------x---x---x--|
|----------------------------------3---------------2---2---2---2--|
( 1 + 2 + 3 + 4 | 1 + 2 + 3 + 4 + )
|-----------------------------------------------------------------|
|----------1-0---1---0---1---0---1-----0--------------------------|
|----------0---0-------0-------0-------0-------0-----------0---0--|
|------2-------------------------------------4---4-----4----------|
|--3---------------0-----------------------2---------------0------|
|----------------------------------0---------------0--------------|
( 1 + 2 + 3 + 4 | 1 + 2 + 3 + 4 + )
|------------------------------3-3--------------------------------|
|--0---0---0---0---0---------3---------3-------1-------0----------|
|--0---0---0---0---0-------0---------------0-------------2-----0--|
|--2---2---2---2---2-----------------------0---------------0------|
|--3---3---3---3---3----------------------------------------------|
|--3---3---3---3---3---------------3---------------2--------------|
( 1 + 2 + 3 + 4 | 1 + 2 + 3 + 4 + )
|-----------------------------------------------------------------|
|----------------------------0-1-3-------------3------------------|
|--0-------2-------0-------0-----------0---0-----------0---0---0--|
|--2-------0-------2-----0-------------0---0---------------0------|
|--2-------0-------3----------------------------------------------|
|--0-----0-2-----0-3---------------3---------------2--------------|
( 1 + 2 + 3 + 4 | 1 + 2 + 3 + 4 + )
|----------------------------2-3-3-------------3------------------|
|--1---0-------------------3-----------3---3---3-------3-------1--|
|--0-----2---0-0-----------------------0---0-----------0-------0--|
|--------0-----2-------0-------------------0---------------0------|
|--0-----2-----3--------------------------------------------------|
|----------------------------------3---------------2--------------|
( 1 + 2 + 3 + 4 | 1 + 2 + 3 + 4 + )
|-----------------------------------------------------------------|
|---p0-----------------------0---1-----0-----------------------0--|
|------0---------------0-0-2-----------0---------------0-0-----0--|
|--------------------------0---------------2-------4-----------2--|
|----------------------------------------------2---0-----------3--|
|--0-------0---0---2---------------0---------------------------3--|
( 1 + 2 + 3 + 4 | 1 + 2 + 3 + 4 + )
|---------------------------------|
|------0---0---0---0--------------|
|------0---0---0---0-----------0--|
|------2---2---2---2-0-4---4------|
|------3---3---3---3--------------|

|------3---3---3---3--------------|
( 1 + 2 + 3 + 4 + )
|-----------------------------------------------------------------|
|----------3---3-------3---3---------------3---3------------------|
|----------0h2-0h2-----2p0-2p0-------------0h2-0h2----------------|
|------0-----------------------0-------0--------------------------|
|-----------------------------------------------------------------|
|--3-------------------------------2---------------2---2---2---2--|
( 1 + 2 + 3 + 4 | 1 + 2 + 3 + 4 + )
|-----------------------------------------------------------------|
|----------3---3-----------3---------------3---3------------------|
|----------0h2-0h2---------0h20------------0h2-0h2----------------|
|------------------------------2p0-----0--------------------------|
|------2-----------------2----------------------------------------|
|--0-------------------------------2---------------2---2---2---2--|
( 1 + 2 + 3 + 4 | 1 + 2 + 3 + 4 + )
|-----------------------------------------------------------------|
|--------------------0-------------------------0------------------|
|----------0h2-2-0-2---2-------------0h2h0-2-----2----------------|
|------0---0-------------------------0----------------------------|
|-----------------------------------------------------------------|
|--3---------------3-------3---3---2---------------2---2---2---2--|
( 1 + 2 + 3 + 4 | 1 + 2 + 3 + 4 + )
|-----------------------------------------------------------------|
|--------0-3---0-------------------3---3---3---3---3---0---3-0----|
|----0h2---------2-----0-----------2---2---2---2---2-----------2-0|
|----------2------------------------------------------------------|
|-----------------------------------------------------------------|
|--0---------------0-------0---0---2---2---2---2---2--------------|
( 1 + 2 + 3 + 4 | 1 + 2 + 3 + 4 + )
<--3-->
|-----------------------------------------------------------------|
|--------------------0--------------------------------0-----------|
|------2---2-----0-2---2---------------2p0-2-----0-2-----2--------|
|----------0---------------------------0---0-------0--------------|
|-----------------------------------------------------------------|
|--3---------------3-------3---3---2-------2-------2-------2---2--|
( 1 + 2 + 3 + 4 | 1 + 2 + 3 + 4 + )
|-----------------------------------------------------------------|
|----------------0-3---0-----------------------0-3-----0----------|
|------2p0-2-------------2-------------2p0-2-------------2--------|
|--------------------------------------0---0----------------------|
|--------------------------------------------------------------0-2|
|--0-------0-------0-------0---0---2-------2-------2-------2------|
( 1 + 2 + 3 + 4 | 1 + 2 + 3 + 4 + )
|-----------------------------------------------------------------|
|----------1-0---1---0---1---0---1-----0-------0-------3---3---3--|
|----------0---0-------0-------0-------0-----0---------2---2---2--|
|------2-----------------------------------4-----------0---0---0--|
|--3---------------0-----------------------2-----------x---x---x--|

|----------------------------------3---------------2---2---2---2--|
( 1 + 2 + 3 + 4 | 1 + 2 + 3 + 4 + )
|-----------------------------------------------------------------|
|----------1-0---1---0---1---0---1-----0-------0-------3---3---3--|
|----------0---0-------0-------0-------0-----0---------2---2---2--|
|------2-----------------------------------4-----------0---0---0--|
|--3---------------0-----------------------2-----------x---x---x--|
|----------------------------------3---------------2---2---2---2--|
( 1 + 2 + 3 + 4 | 1 + 2 + 3 + 4 + )
|--------------------------------0--------------------------------|
|------1-1-1-1-1-3-----3---3-3-3-------3---3---0-3-------------0-1|
|------0-0-0-0-0-0-----0---0-0-0-------0---0---0-----------0-2----|
|----------2---------------2---------------0-----------0----------|
|--3---------------0----------------------------------------------|
|----------------------------------3---------------2--------------|
( 1 + 2 + 3 + 4 | 1 + 2 + 3 + 4 + )
|----------------------0---7p5-0-3-----0-----------------------3-3|
|------0---------------0---5-----------1-------3-------------3----|
|--------------0-----------5-----------------0---0---------0------|
|------------4---4-------------------------2-------0--------------|
|----------2---------------0-------3------------------------------|
|--0---------------0----------------------------------------------|
( 1 + 2 + 3 + 4 | 1 + 2 + 3 + 4 + )
|--------------------------------------------------------------3-3|
|------3-------1-------0-------------------------------------3----|
|----------0-------------2-----0---0-------2-------0-------0------|
|----------0---------------0-------2-------0-------2-----0--------|
|----------------------------------2-------0-------3--------------|
|--3---------------2---------------0-----0-2-----0-3--------------|
( 1 + 2 + 3 + 4 | 1 + 2 + 3 + 4 + )
|--------------3-------------------3---0-3--/5-3---------------3-3|
|------3---3-----------3---3---3---1-----1-----1-------------3----|
|----------0-----------0---0---0---------------------------0------|
|----------0---------------0---------------------------0----------|
|----------------------------------0-----2-----3------------------|
|--3---------------2----------------------------------------------|
( 1 + 2 + 3 + 4 | 1 + 2 + 3 + 4 + )
|--------------3--------------------------------------------------|
|------3---3---3-------3-------1----p0-----------------------0---1|
|------0---0-----------0-------0-------0---------------0-0-2------|
|----------0---------------0-------------------------------0------|
|-----------------------------------------------------------------|
|--3---------------2---------------0-------0---0---2--------------|
( 1 + 2 + 3 + 4 | 1 + 2 + 3 + 4 + )
|------------------------------------------------------2-2-2-2-3-3|
|------0-----------------------0-------0---0---0---0---3-3-3-3-3-3|
|----------------------0-0-----0-------0---0---0---0--------------|
|----------2-------4-----------2-------2---2---2---2--------------|
|--------------2---0-----------3-------3---3---3---3--------------|
|--0---------------------------3-------3---3---3---3---2----------|
( 1 + 2 + 3 + 4 | 1 + 2 + 3 + 4 + )

|------3-------------------------0-------0-------------2-2-2-2-3-3|
|------3-------------------3-3-3-----3-3-----3-3-3-----3-3-3-3-3-3|
|-----------------------------------------------------------------|
|----------------------0------------------------------------------|
|----------------------------------0-------2-------3--------------|
|--0-------0-2---3-------------------------------------2----------|
( 1 + 2 + 3 + 4 | 1 + 2 + 3 + 4 + )
|------3-------------------------0-------0-------------2-2-2-2-3-3|
|------3-------------------0-1-3-----3-3-----3-3-3-----3-3-3-3-3-3|
|------------------------------------0-0-----0-0-0----------------|
|----------------------0------------------------------------------|
|----------------------------------0-------2-------3--------------|
|--0-------0-2---3-------------------------------------2----------|
( 1 + 2 + 3 + 4 | 1 + 2 + 3 + 4 + )
|------3-------------------------0-------0-------------2-2-2-2-3-3|
|------3-------------------0-1-3-----3-3-----3-3-3-----3-3-3-3-3-3|
|------------------------------------0-0-----0-0-0----------------|
|----------------------0------------------------------------------|
|----------------------------------0-------2-------3--------------|
|--0-------0-2---3-------------------------------------2----------|
( 1 + 2 + 3 + 4 | 1 + 2 + 3 + 4 + )
|------3---------3-----3---------3-----3---------------2-2-2-2-3-3|
|------3---------3-----3---------3-----3-----3---------3-3-3-3-3-3|
|----------------------------------------------0------------------|
|-----------------------------------------------------------------|
|--------------------------0-2-----3-------3----------------------|
|--0-------0-2-----3-----------------------------0-2-------2------|
( 1 + 2 + 3 + 4 | 1 + 2 + 3 + 4 + )
|------3---------3-----3---7p3p0---3-------0----------------------|
|------3---------3-----3---------0-1-------1-------3-------1------|
|--------------------------------------------------0-------0------|
|----------------------------------------2------------------------|
|--------------------------0-------3-------------3-------3--------|
|--0-------0-2-----3----------------------------------------------|
( 1 + 2 + 3 + 4 | 1 + 2 + 3 + 4 + )
~~
~~
|-----------------------------------------------------------------|
|--0---------------0---------------1-------0----------------------|
|--0-------2---------------0-------2---------------2-------0------|
|--0---0-------0-------0-------0---0-----0-------0-------0-----0--|
|-----------------------------------------------------------------|
|--3-------------------------------2------------------------------|
( 1 + 2 + 3 + 4 | 1 + 2 + 3 + 4 + )
~~
~~
|-----------------------------------------------------------------|
|------------------0---------------1-------0----------------------|
|--0-------2---------------0-------2---------------2-------0------|
|--2-------------------2-----------0---0-------0-------0----------|
|------2-------2--------------------------------------------------|
|--0---------------------------0---2------------------------------|
( 1 + 2 + 3 + 4 | 1 + 2 + 3 + 4 + )
|-----------------------------------------------------------------|
|--------------------0---------------------------------0----------|

|----------0h2-2-0-2---2-----------------0-2-0-2-0-2-----2--------|
|------0---0------------------------------------------------------|
|-----------------------------------------------------------------|
|--3---------------3-------3---3---2---------------2-------2---2--|
( 1 + 2 + 3 + 4 | 1 + 2 + 3 + 4 + )
|-----------------------------------------------------------------|
|----------3---3-------3---3---------------3---3---------0h3p0----|
|----------0h2-0h2-----2p0-2p0-------------0h2-0h2---0h2-------2p0|
|------------------------------0-------0--------------------------|
|------2----------------------------------------------------------|
|--0-------------------------------2---------------2--------------|
( 1 + 2 + 3 + 4 | 1 + 2 + 3 + 4 + )
|------------------------------||
|------------------------------||
|------------------------------||
|------------------------------||
|------------------------------||
|--3---------------------------||
( 1 + 2 + 3 + 4 )
h = hammer-on
p = pull-off
/ = slide up