Вы находитесь на странице: 1из 119

MEMORIA DE CLCULO ESTRUCTURAL

DISEO ESTRUCTURAL HOGAR INFANTIL


AGRUPADO SONRISAS DEL CASTILLO
VEREDA TAMAJE
MUNICIPIO DE ROBERTO PAYAN
DEPARTAMENTO DE NARIO

MEMORIA DE CLCULO ESTRUCTURAL

1. CARACTERSTICAS GENERALES DEL PROYECTO.


1.1.1. Descripcin General:
Estructura de un nivele, con un rea total de de 185.4 m2, destinada a un centro
educativo. La estructura planteada consta de prticos de concreto reforzado resistentes a
momento, conformando as un sistema estructural combinado por columnas en concreto
de 30x30 cm, vigas de 30x30 y 20x20 cm, con la cubierta en asbesto cemento sobre
perfiles phrc sencillos con dimenciones 12 x 6 x 1.5 (2mm) y vigas en concreto de 25 x 25
cm. Y cerchas metalicas, como se indica en los planos

2. MODELO ESTRUCTURAL DE ANALISIS.

2.1.1. Apoyos.
Las condiciones de frontera impuestas al modelo son la colocacin de apoyos de sexto
grado para cada punto de apoyo columna.

2.1.2. Materiales y Secciones.


En el programa RAM Advance se trabajo el modelo de la estructura con materiales
isotrpicos.
El modelo posee los siguientes materiales.
CTO210x4200: Utilizado para modelar vigas.
Ec = 1811420 Ton/m2 18114.2 MPa
= 0.20
= 2.4 Ton/m3
masa = 0.0
fy = 4200 Kgf/cm2
f`c = 210 Kgf/cm2
CTOCOL210x4200: Utilizado para modelar columnas.
Ec = 1811420 Ton/m2 18114.2 MPa
2

MEMORIA DE CLCULO ESTRUCTURAL

= 0.20
= 2.05 Ton/m3
masa = 0.205 Ton-s2/m
fy = 4200 Kgf/cm2 420 MPa
f`c = 210 Kgf/cm2 21 Mpa
Nota: El objeto de de la reduccin tanto en la masa como en el peso especfico es con el
objeto de no tener en cuenta doblemente tanto el peso como la masa de columna en la
interseccin con la placa.

CONCPLA: Utilizado para modelar la placa de entrepiso.


Ec = 1811420 Ton/m2 18114.2 MPa
= 0.20
=0
masa = 0
fy = 4200 Kgf/cm2
f`c = 210 Kgf/cm2

MEMORIA DE CLCULO ESTRUCTURAL

2.1.3. Cargas Aplicadas


2.1.3.1. Cargas Muertas:
Las cargas muertas estn representadas por:
Peso de la Estructura: Incluye el peso de los muros estructurales y no estructurales,
peso de muros fachada, las losas de piso, cubierta, acabados, cielos rasos falsos,
de la NSR 10 .

2.1.4.2. Cargas Vivas.


Las carga viva utilizada es la correspondiente al uso de edificios destinados a centros
educativos. El cdigo NSR-10 establece una carga viva de 50 kgf/m2 para cubiertas

2.1.4.3. Cargas Ssmicas.


Debido a la rigidez transversal del entrepiso, este se modelo como un diafragma rgido
para cargas contenidas en su plano [Cargas Inerciales generadas por el sismo). La
evaluacin de la carga ssmica se realiza a partir del mtodo anlisis Dinmico Modal
Espectral. El espectro utilizado en el estudio es el dado por la NSR-10.

TIPO DE SUELO=
Coeficiente de Importancia=
To=
TC=
TL=

0.135449735
0.65015873
3.84

1.500
1.000
0.500
0.000
0.00

2.00

4.00

6.00

8.00

Fa

Fv

1.05
1
0.45

1.6
0.4

MEMORIA DE CLCULO ESTRUCTURAL

3 RESULTADOS DE ANALISIS SISMICO


Anlisis Ssmico
Anlisis Modal
Espectral

MASAS:
Nudo

39

Masa X

Masa Y

Masa Z

[Ton]

[Ton]

[Ton]

52.52

Iner.XX
Iner.YY
Iner.ZZ
[Ton*cm2 [Ton*cm2 [Ton*cm2
]
]
]

52.52

2.07E+0
0

FRECUENCIAS POR MODO:


MODO

W
T
[RAD/SEG] [SEG]
1
2
3

21.52
23.83
27.65

0.29202
0.2637
0.22726

PORCENTAJE DE PARTICIPACION DE
MASAS

MODO

Participacin Modal
Part.Y
Part.Z

Part.X
1
2
3

TOTAL:

Rot.X

Rot.Y

Rot.Z

0
94.81
5.19

0
0
0

100
0
0

0
0
0

0
5.19
94.81

0
0
0

100

100

100

MEMORIA DE CLCULO ESTRUCTURAL

MASA TOTAL
GDL Masa Total
[Ton/cm*Sec2]
TX
TY
TZ
RX
RY
RZ

0.05
0
0.05
0
21126.64
0

MEMORIA DE CLCULO ESTRUCTURAL

4. ANALISIS DE ELEMENTOS Y DISEO

El diseo de se la estructura se la ha realizado por medio de el mtodo de los elementos


finitos en el programa RAM ADVANSE versin 9.0 . Programado computacionalmente
para calcular el campo de desplazamientos y, posteriormente, a travs de relaciones
cinemticas y constitutivas las deformaciones y tensiones respectivamente, cuando se
trata de un problema de mecnica de slidos deformables o ms generalmente un
problema de mecnica de medios continuos. El mtodo de los elementos finitos es muy
usado debido a su generalidad y a la facilidad de introducir dominios de clculo complejos
(en dos o tres dimensiones)

FY DE BARRA N3 = 2800, LA VIGA DE CIMENTACION TRANSMITE ESFUERZOS AL


INDIRECTAMENTE AL SUELO, DEPENDIENDO DE LA MASA DE LA EDIFICACION SE
CALCULA As CON MAYORES DIAMETROS, LA EDIFICACION ES DE UN PISO EL
REFUERZO CON MAYORES DIAMETROS SE CALCULA PARA VIGAS AEREAS Y
COLUMNAS QUE SOPORTAN CARGAS SISMICAS Y PESO PROPIO DE LA
ESTRUCTURA, LA VIGA DE CIMENTACION CUMPLE CON REFUERZO YA QUE
ESTOS ELEMENTOS EN ESTE TIPO DE ESTRUCTURAS TRABAJAN PARA
CONFINAR MUROS.
7

MEMORIA DE CLCULO ESTRUCTURAL

Viga CIMENTACION
A,B,C,D
Norma de diseo ACI 318-05 NSR 10

________________________________________________________________________________________________________________

DATOS GENERALES:

Tramos:

Tramo

Luz

Seccin

Material

[m]
-----------------------------------------------------------------------------------------------------------------------------------------------------------1

3.62

RcBeamM 30x30cm

H 210x4200

1.45

RcBeamM 30x30cm

H 210x4200

4.93

RcBeamM 30x30cm

H 210x4200

------------------------------------------------------------------------------------------------------------------------------------------------------------

Nudos:

Distancia

Restriccin

Tx

Ty

Rz

[m]
------------------------------------------------------------------------------0.00

Empotrado

MEMORIA DE CLCULO ESTRUCTURAL

3.62

Empotrado

5.08

Empotrado

10.00

Empotrado

-------------------------------------------------------------------------------

Estados de carga:

Estado

Descripcin

Comb.

Categora

Duracin

-----------------------------------------------------------------------------------------------------------------------------------------------------------DL

Carga Muerta

No

DL

--

LL

Carga Viva

No

LL

--

S1

DL+LL

Si

Servicio

--

D1

DL+LL

Si

Diseo

--

------------------------------------------------------------------------------------------------------------------------------------------------------------

Reacciones:

Nudos

estado

Rx

Ry

Mz

[Ton]

[Ton]

[Ton*m]

---------------------------------------------------------------------------------------------------1

D1

0.00

0.39

0.24

D1

0.00

0.55

-0.20

D1

0.00

0.69

0.40

D1

0.00

0.53

-0.44

MEMORIA DE CLCULO ESTRUCTURAL

---------------------------------------------------------------------------------------------------1

Min.

0.00

0.39

0.24

Min.

0.00

0.55

-0.20

Min.

0.00

0.69

0.40

Min.

0.00

0.53

-0.44

---------------------------------------------------------------------------------------------------1

Max.

0.00

0.39

0.24

Max.

0.00

0.55

-0.20

Max.

0.00

0.69

0.40

Max.

0.00

0.53

-0.44

----------------------------------------------------------------------------------------------------

Esfuerzos y puntos de inflexin

Estacin

Estado

[%]

Distancia

Corte V

Momento M

[m]

[Ton]

[Ton*m]

---------------------------------------------------------------------------------------------------------0

D1

0.00

-0.39

-0.24

D1

0.77

-0.23

0.00

18

D1

1.81

0.00

0.12

29

D1

2.86

0.23

0.00

36

D1

3.62

0.39

-0.24

36

D1

3.62

-0.16

-0.04

39

D1

3.93

-0.09

0.00

44

D1

4.35

0.00

0.02

48

D1

4.77

0.09

0.00

51

D1

5.08

0.16

-0.04

51

D1

5.08

-0.53

-0.44

61

D1

6.12

-0.31

0.00

75

D1

7.54

0.00

0.22

90

D1

8.96

0.31

0.00

10

MEMORIA DE CLCULO ESTRUCTURAL

100

D1

10.00

0.53

-0.44

----------------------------------------------------------------------------------------------------------

Deflexiones crticas

Estado

Tramo

Distancia

[m]

[%]

Deflexin
[cm]

Admisible
f(L)

[cm]

----------------------------------------------------------------------------------------------------------------------------------------------S1

7.54

75.38

0.06653

(L/7403)

1.36806

-----------------------------------------------------------------------------------------------------------------------------------------------

Envolventes :

Momentos flectores M33:


Momentos [Ton*m], Longitud [m]

Esfuerzos cortantes V2:


Fuerzas [Ton], Longitud [m]

11

MEMORIA DE CLCULO ESTRUCTURAL

Traslacin Vertical
Deflexin [cm], Longitud [m]

DISEO:

Estatus

Bien

Armadura

Recubrimiento libre

2.54 [cm]

Recubrimiento mecnico

3.81 [cm]

12

MEMORIA DE CLCULO ESTRUCTURAL

Deformacin unitaria lmite a traccin

0.004

Refuerzo longitudinal

Grupo
Gancho2

Cantidad

Dimetro

Pos

Eje Ref. 1

Dist1

Eje Ref. 2

[m]

Dist2

Gancho1

[m]

---------------------------------------------------------------------------------------------------------------------------------------------------------------------------1

#3

Inferior

-0.10

0.10

Si

Si

#3

Superior

-0.10

0.10

Si

Si

----------------------------------------------------------------------------------------------------------------------------------------------------------------------------

Longitudes de anclaje y empalme

Grupo

Dimetro

Ld

Ldh

L. Empalme

L. total

[cm]

[cm]

[cm]

[m]

--------------------------------------------------------------------------------------------------------------------------1

#3

43.18

15.24

55.88

10.46

#3

55.88

15.24

71.12

10.46

---------------------------------------------------------------------------------------------------------------------------

Refuerzo transversal

Tramo

Dimetro

Cantidad

@
[cm]

13

Ramas

Cerrado

MEMORIA DE CLCULO ESTRUCTURAL

------------------------------------------------------------------------------------------------------------------------1-2

#3

27

12.70

Si

2-3

#3

10

12.70

Si

3-4

#3

37

12.70

Si

-------------------------------------------------------------------------------------------------------------------------

Separacin inicial de estribos:

Tramo

S inicial

Sin lim

[cm]

[cm]

-----------------------------------------------------------0-1

3.45

13.10

1-2

2.81

13.10

2-3

4.95

13.10

------------------------------------------------------------

DISEO FLEXION

Tramo: 1-2

Miembro No: 10

Altura efectiva:

d = 26.19 [cm]

Porcentaje de redistribucin de momentos:

Apoyo A = 0.00%

Apoyo B = 0.00%

Cuanta geomtrica mxima:

maxsup = 1.55%

maxinf= 1.55%

Separacin lmite entre barras por fisuracin:

sb lim = 30.61 [cm]

Momentos flectores

Estacin

Mu[Ton*m]

*Mn[Ton*m]

Mu/( *Mn)

14

Asreq [cm2]

Asprov [cm2]

(%)

sb [cm]

MEMORIA DE CLCULO ESTRUCTURAL

No. Dist

neg

pos

neg

pos

sup

inf

sup

inf

sup

inf

inf

---------------------------------------------------------------------------------------------------------------------------------------------------------------------------1
0%
0.12

-0.24

0.00

-2.03

2.03

0.32

0.00

2.13

2.13

0.27

0.27

8.65

2
10%
0.05

-0.11

0.00

-2.03

2.03

0.15

0.00

2.13

2.13

0.27

0.27

8.65

3
20%
0.00

-0.01

0.00

-2.03

2.03

0.01

0.00

2.13

2.13

0.27

0.27

8.65

4
30%
0.03

0.00

0.06

-2.03

2.03

0.00

0.08

2.13

2.13

0.27

0.27

8.65

5
40%
0.05

0.00

0.10

-2.03

2.03

0.00

0.14

2.13

2.13

0.27

0.27

8.65

6
50%
0.06

0.00

0.12

-2.03

2.03

0.00

0.16

2.13

2.13

0.27

0.27

8.65

7
60%
0.05

0.00

0.10

-2.03

2.03

0.00

0.14

2.13

2.13

0.27

0.27

8.65

8
70%
0.03

0.00

0.06

-2.03

2.03

0.00

0.08

2.13

2.13

0.27

0.27

8.65

9
80%
0.00

-0.01

0.00

-2.03

2.03

0.01

0.00

2.13

2.13

0.27

0.27

8.65

10 90%
0.05

-0.11

0.00

-2.03

2.03

0.15

0.00

2.13

2.13

0.27

0.27

8.65

11 100%
0.12

-0.24

0.00

-2.03

2.03

0.32

0.00

2.13

2.13

0.27

0.27

8.65

----------------------------------------------------------------------------------------------------------------------------------------------------------------------------

8.65

C
100%
0.12

-0.24

0.00

-2.03

2.03

0.32

0.00

2.13

2.13

0.27

0.27

----------------------------------------------------------------------------------------------------------------------------------------------------------------------------

15

MEMORIA DE CLCULO ESTRUCTURAL

Tramo: 2-3

Miembro No: 11

Altura efectiva:

d = 26.19 [cm]

Porcentaje de redistribucin de momentos:

Apoyo A = 0.00%

Apoyo B = 0.00%

Cuanta geomtrica mxima:

maxsup = 1.55%

maxinf= 1.55%

Separacin lmite entre barras por fisuracin:

sb lim = 30.61 [cm]

Momentos flectores

Estacin

Mu[Ton*m]

*Mn[Ton*m]

Asreq [cm2]

Asprov [cm2]

neg

sup

sup

(%)

sb [cm]

Mu/( *Mn)
No. Dist

neg

pos

pos

inf

inf

sup

inf

inf

---------------------------------------------------------------------------------------------------------------------------------------------------------------------------1
0%
0.02

-0.04

0.00

-2.03

2.03

0.05

0.00

2.13

2.13

0.27

0.27

8.65

2
10%
0.01

-0.02

0.00

-2.03

2.03

0.02

0.00

2.13

2.13

0.27

0.27

8.65

3
20%
0.00

0.00

0.00

-2.03

2.03

0.00

0.00

2.13

2.13

0.27

0.27

8.65

4
30%
0.00

0.00

0.01

-2.03

2.03

0.00

0.01

2.13

2.13

0.27

0.27

8.65

5
40%
0.01

0.00

0.02

-2.03

2.03

0.00

0.02

2.13

2.13

0.27

0.27

8.65

16

MEMORIA DE CLCULO ESTRUCTURAL

6
50%
0.01

0.00

0.02

-2.03

2.03

0.00

0.03

2.13

2.13

0.27

0.27

8.65

7
60%
0.01

0.00

0.02

-2.03

2.03

0.00

0.02

2.13

2.13

0.27

0.27

8.65

8
70%
0.00

0.00

0.01

-2.03

2.03

0.00

0.01

2.13

2.13

0.27

0.27

8.65

9
80%
0.00

0.00

0.00

-2.03

2.03

0.00

0.00

2.13

2.13

0.27

0.27

8.65

10 90%
0.01

-0.02

0.00

-2.03

2.03

0.02

0.00

2.13

2.13

0.27

0.27

8.65

11 100%
0.02

-0.04

0.00

-2.03

2.03

0.05

0.00

2.13

2.13

0.27

0.27

8.65

----------------------------------------------------------------------------------------------------------------------------------------------------------------------------

8.65

C
0%
0.02

-0.04

0.00

-2.03

2.03

0.05

0.00

2.13

2.13

0.27

0.27

----------------------------------------------------------------------------------------------------------------------------------------------------------------------------

Tramo: 3-4

Miembro No: 14

Altura efectiva:

d = 26.19 [cm]

Porcentaje de redistribucin de momentos:

Apoyo A = 0.00%

Apoyo B = 0.00%

Cuanta geomtrica mxima:

maxsup = 1.55%

maxinf= 1.55%

Separacin lmite entre barras por fisuracin:

sb lim = 30.61 [cm]

Momentos flectores

17

MEMORIA DE CLCULO ESTRUCTURAL

Estacin

Mu[Ton*m]

*Mn[Ton*m]

Asreq [cm2]

Asprov [cm2]

neg

sup

sup

(%)

sb [cm]

Mu/( *Mn)
No. Dist

neg

pos

pos

inf

inf

sup

inf

inf

---------------------------------------------------------------------------------------------------------------------------------------------------------------------------1
0%
0.22

-0.44

0.00

-2.03

2.03

0.60

0.00

2.13

2.13

0.27

0.27

8.65

2
10%
0.10

-0.20

0.00

-2.03

2.03

0.27

0.00

2.13

2.13

0.27

0.27

8.65

3
20%
0.01

-0.02

0.00

-2.03

2.03

0.02

0.00

2.13

2.13

0.27

0.27

8.65

4
30%
0.06

0.00

0.11

-2.03

2.03

0.00

0.15

2.13

2.13

0.27

0.27

8.65

5
40%
0.09

0.00

0.19

-2.03

2.03

0.00

0.26

2.13

2.13

0.27

0.27

8.65

6
50%
0.11

0.00

0.22

-2.03

2.03

0.00

0.30

2.13

2.13

0.27

0.27

8.65

7
60%
0.09

0.00

0.19

-2.03

2.03

0.00

0.26

2.13

2.13

0.27

0.27

8.65

8
70%
0.06

0.00

0.11

-2.03

2.03

0.00

0.15

2.13

2.13

0.27

0.27

8.65

9
80%
0.01

-0.02

0.00

-2.03

2.03

0.02

0.00

2.13

2.13

0.27

0.27

8.65

10 90%
0.10

-0.20

0.00

-2.03

2.03

0.27

0.00

2.13

2.13

0.27

0.27

8.65

11 100%
0.22

-0.44

0.00

-2.03

2.03

0.60

0.00

2.13

2.13

0.27

0.27

8.65

----------------------------------------------------------------------------------------------------------------------------------------------------------------------------

8.65

C
100%
0.22

-0.44

0.00

-2.03

2.03

0.60

0.00

2.13

2.13

0.27

0.27

----------------------------------------------------------------------------------------------------------------------------------------------------------------------------

18

MEMORIA DE CLCULO ESTRUCTURAL

CORTE Y TORSIN

Tramo: 1-2

Estacin

*Vn

Miembro No: 10

Estribos

Tu

*Tn

Al

Vu

Vs

Vc

[Ton*m]

[Ton*m]

[cm2]

[Ton]

[Ton]

[Ton]

Spc prov Spc lim

Vu/( *Vn)

No.

Dist

Dim

VCT

[cm]

[cm]

[Ton]

----------------------------------------------------------------------------------------------------------------------------------------------------------------------------------1
13.75

0%
0.02

#3

12.70

13.10

0.00

1.69

0.00

0.33

12.29

6.04

2
13.75

10%
0.02

#3

12.70

13.10

0.00

1.69

0.00

0.31

12.29

6.04

3
13.75

20%
0.02

#3

12.70

13.10

0.00

1.69

0.00

0.23

12.29

6.04

4
13.75

30%
0.01

#3

12.70

13.10

0.00

1.69

0.00

0.16

12.29

6.04

5
13.75

40%
0.01

#3

12.70

13.10

0.00

1.69

0.00

0.08

12.29

6.04

6
13.75

50%
0.00

#3

12.70

13.10

0.00

1.69

0.00

0.00

12.29

6.04

7
13.75

60%
0.01

#3

12.70

13.10

0.00

1.69

0.00

0.08

12.29

6.04

8
13.75

70%
0.01

#3

12.70

13.10

0.00

1.69

0.00

0.16

12.29

6.04

19

MEMORIA DE CLCULO ESTRUCTURAL

9
13.75

80%
0.02

#3

12.70

13.10

0.00

1.69

0.00

0.23

12.29

6.04

10
13.75

90%
0.02

#3

12.70

13.10

0.00

1.69

0.00

0.31

12.29

6.04

11
13.75

100%
0.02

#3

12.70

13.10

0.00

1.69

0.00

0.33

12.29

6.04

----------------------------------------------------------------------------------------------------------------------------------------------------------------------------------C
13.75

92%
0.02

#3

12.70

13.10

0.00

1.69

0.00

0.33

12.29

6.04

-----------------------------------------------------------------------------------------------------------------------------------------------------------------------------------

Tramo: 2-3

Estacin

*Vn

Miembro No: 11

Estribos

Tu

*Tn

Al

Vu

Vs

Vc

[Ton*m]

[Ton*m]

[cm2]

[Ton]

[Ton]

[Ton]

Spc prov Spc lim

Vu/( *Vn)

No.

Dist

Dim

VCT

[cm]

[cm]

[Ton]

----------------------------------------------------------------------------------------------------------------------------------------------------------------------------------1
13.75

0%
0.01

#3

12.70

13.10

0.00

1.69

0.00

0.09

12.29

6.04

2
13.75

10%
0.01

#3

12.70

13.10

0.00

1.69

0.00

0.09

12.29

6.04

3
13.75

20%
0.01

#3

12.70

13.10

0.00

1.69

0.00

0.09

12.29

6.04

4
13.75

30%
0.00

#3

12.70

13.10

0.00

1.69

0.00

0.06

12.29

6.04

20

MEMORIA DE CLCULO ESTRUCTURAL

5
13.75

40%
0.00

#3

12.70

13.10

0.00

1.69

0.00

0.03

12.29

6.04

6
13.75

50%
0.00

#3

12.70

13.10

0.00

1.69

0.00

0.00

12.29

6.04

7
13.75

60%
0.00

#3

12.70

13.10

0.00

1.69

0.00

0.03

12.29

6.04

8
13.75

70%
0.00

#3

12.70

13.10

0.00

1.69

0.00

0.06

12.29

6.04

9
13.75

80%
0.01

#3

12.70

13.10

0.00

1.69

0.00

0.09

12.29

6.04

10
13.75

90%
0.01

#3

12.70

13.10

0.00

1.69

0.00

0.09

12.29

6.04

11
13.75

100%
0.01

#3

12.70

13.10

0.00

1.69

0.00

0.09

12.29

6.04

----------------------------------------------------------------------------------------------------------------------------------------------------------------------------------C
13.75

0%
0.01

#3

12.70

13.10

0.00

1.69

0.00

0.09

12.29

6.04

-----------------------------------------------------------------------------------------------------------------------------------------------------------------------------------

Tramo: 3-4

Estacin

*Vn

Miembro No: 14

Estribos

Tu

*Tn

Al

Vu

Vs

Vc

[Ton*m]

[Ton*m]

[cm2]

[Ton]

[Ton]

[Ton]

Spc prov Spc lim

Vu/( *Vn)

No.

Dist

Dim

VCT

[cm]

[cm]

[Ton]

-----------------------------------------------------------------------------------------------------------------------------------------------------------------------------------

21

MEMORIA DE CLCULO ESTRUCTURAL

1
13.75

0%
0.03

#3

12.70

13.10

0.00

1.69

0.00

0.47

12.29

6.04

2
13.75

10%
0.03

#3

12.70

13.10

0.00

1.69

0.00

0.43

12.29

6.04

3
13.75

20%
0.02

#3

12.70

13.10

0.00

1.69

0.00

0.32

12.29

6.04

4
13.75

30%
0.02

#3

12.70

13.10

0.00

1.69

0.00

0.21

12.29

6.04

5
13.75

40%
0.01

#3

12.70

13.10

0.00

1.69

0.00

0.11

12.29

6.04

6
13.75

50%
0.00

#3

12.70

13.10

0.00

1.69

0.00

0.00

12.29

6.04

7
13.75

60%
0.01

#3

12.70

13.10

0.00

1.69

0.00

0.11

12.29

6.04

8
13.75

70%
0.02

#3

12.70

13.10

0.00

1.69

0.00

0.21

12.29

6.04

9
13.75

80%
0.02

#3

12.70

13.10

0.00

1.69

0.00

0.32

12.29

6.04

10
13.75

90%
0.03

#3

12.70

13.10

0.00

1.69

0.00

0.43

12.29

6.04

11
13.75

100%
0.03

#3

12.70

13.10

0.00

1.69

0.00

0.47

12.29

6.04

----------------------------------------------------------------------------------------------------------------------------------------------------------------------------------C
13.75

96%
0.03

#3

12.70

13.10

0.00

1.69

0.00

0.47

12.29

6.04

-----------------------------------------------------------------------------------------------------------------------------------------------------------------------------------

22

MEMORIA DE CLCULO ESTRUCTURAL

Notas aclaratorias:

* Slo se consideran las solicitaciones a flexin (Mu), corte (Vu) y torsin (Tu) en el diseo.

* Los valores en rojo no cumplen con alguna provisin de la norma.

* El rea requerida por flexin tanto negativa como positiva incluye el refuerzo longitudinal. Vea, abajo, la nota relacionada
con el parmetro VCT para determinar cuando las barras han sido provistas para resistir adems torsin o compresin. Esta
armadura considera el rea de refuerzo mnimo dado por norma (10.5).

* Las barras no contribuirn a la resistencia del miembro en una distancia igual al mx(12*db,d) cuando el diagrama de
momentos disminuye en la misma direccin del anclaje.

* Si la seccin se encuentra dentro de la longitud de anclaje, el aporte de resistencia ser proporcional al desarrollo de su
longitud de anclaje hasta el punto en consideracin.

* Asprov es el refuerzo provisto considerando el descuento por la longitud de anclaje mencionado en el punto anterior.

* "C" indica la estacin crtica del tramo.

* Ld-Ldh = La longitud de anclaje de cada barra. Considera la longitud del gancho Ldh en el caso que la barra termine en
gancho.

* La longitud de empalme mostrada no se encuentra reducida por el factor Asreq/Asprov.

* sb = separacin libre entre barras superior o inferior correspondiente a la capa de barras mas cercana al borde de la viga
(capa 1). No se calcula cuando se dispone de una sola barra.

* El refuerzo transversal se encuentra ordenado de izquierda a derecha.

23

MEMORIA DE CLCULO ESTRUCTURAL

* Estribos VCT = una bandera que determina si son necesarios los estribos para resistir corte (V), torsin (T) o por tener
armadura a compresin (C).

* Spa = separacin entre estribos asignada por el usuario.

* Spa lim = separacin lmite dada por condiciones geomtricas. (11.5.4.1, 11.5.4.3, 21.3.3.2, 21.10.4.2)

* closed = Indica si el estribo es cerrado (si) o abierto (no).

* Mu/(*Mn) = Relacin de resistencia crtica para la estacin. Si el valor se encuentra en rojo, la relacin es mayor a la
unidad.

* Al = Es el refuerzo total adicional requerido por torsin.

* El programa no considera las verificaciones ACI 318-99 12.11.3 de la norma para la longitud de anclaje, limitando el
dimetro de la barra a utilizar.

Viga CIMENTACION 1,2,3

Norma de diseo ACI 318-05 - NSR 10

________________________________________________________________________________________________________________

DATOS GENERALES:

Tramos:

24

MEMORIA DE CLCULO ESTRUCTURAL

Tramo

Luz

Seccin

Material

[m]
-----------------------------------------------------------------------------------------------------------------------------------------------------------1

6.70

RcBeamM 30x30cm

H 210x4200

4.30

RcBeamM 30x30cm

H 210x4200

6.70

RcBeamM 30x30cm

H 210x4200

------------------------------------------------------------------------------------------------------------------------------------------------------------

Nudos:

Distancia

Restriccin

Tx

Ty

Rz

[m]
------------------------------------------------------------------------------0.00

Empotrado

6.70

Empotrado

11.00

Empotrado

17.70

Empotrado

-------------------------------------------------------------------------------

Estados de carga:

Estado

Descripcin

Comb.

Categora

Duracin

-----------------------------------------------------------------------------------------------------------------------------------------------------------DL

Carga Muerta

No

DL

--

LL

Carga Viva

No

LL

--

25

MEMORIA DE CLCULO ESTRUCTURAL

S1

DL+LL

Si

Servicio

--

D1

DL+LL

Si

Diseo

--

------------------------------------------------------------------------------------------------------------------------------------------------------------

Reacciones:

Nudos

estado

Rx

Ry

Mz

[Ton]

[Ton]

[Ton*m]

---------------------------------------------------------------------------------------------------1

D1

0.00

0.72

0.81

D1

0.00

1.19

-0.48

D1

0.00

1.19

0.48

D1

0.00

0.72

-0.81

---------------------------------------------------------------------------------------------------1

Min.

0.00

0.72

0.81

Min.

0.00

1.19

-0.48

Min.

0.00

1.19

0.48

Min.

0.00

0.72

-0.81

---------------------------------------------------------------------------------------------------1

Max.

0.00

0.72

0.81

Max.

0.00

1.19

-0.48

Max.

0.00

1.19

0.48

Max.

0.00

0.72

-0.81

----------------------------------------------------------------------------------------------------

Esfuerzos y puntos de inflexin

Estacin
[%]

Estado

Distancia

Corte V

Momento M

[m]

[Ton]

[Ton*m]

----------------------------------------------------------------------------------------------------------

26

MEMORIA DE CLCULO ESTRUCTURAL

D1

0.00

-0.72

-0.81

D1

1.42

-0.42

0.00

19

D1

3.35

0.00

0.40

30

D1

5.28

0.42

0.00

38

D1

6.70

0.72

-0.81

38

D1

6.70

-0.46

-0.33

43

D1

7.61

-0.27

0.00

50

D1

8.85

0.00

0.17

57

D1

10.09

0.27

0.00

62

D1

11.00

0.46

-0.33

62

D1

11.00

-0.72

-0.81

70

D1

12.42

-0.42

0.00

81

D1

14.35

0.00

0.40

92

D1

16.28

0.42

0.00

100

D1

17.70

0.72

-0.81

----------------------------------------------------------------------------------------------------------

Deflexiones crticas

Estado

Tramo

Distancia

[m]

[%]

Deflexin
[cm]

Admisible
f(L)

[cm]

----------------------------------------------------------------------------------------------------------------------------------------------S1

14.35

81.07

0.22633

(L/2960)

1.86111

-----------------------------------------------------------------------------------------------------------------------------------------------

Envolventes :

Momentos flectores M33:


Momentos [Ton*m], Longitud [m]

27

MEMORIA DE CLCULO ESTRUCTURAL

Esfuerzos cortantes V2:


Fuerzas [Ton], Longitud [m]

Traslacin Vertical
Deflexin [cm], Longitud [m]

28

MEMORIA DE CLCULO ESTRUCTURAL

DISEO:

Estatus

Bien

Armadura

Recubrimiento libre

2.54 [cm]

Recubrimiento mecnico

3.81 [cm]

Deformacin unitaria lmite a traccin

0.004

Refuerzo longitudinal

Grupo
Gancho2

Cantidad

Dimetro

Pos

Eje Ref. 1

Dist1

[m]

29

Eje Ref. 2

Dist2

[m]

Gancho1

MEMORIA DE CLCULO ESTRUCTURAL

---------------------------------------------------------------------------------------------------------------------------------------------------------------------------1

#3

Inferior

-0.10

0.10

Si

Si

#3

Superior

-0.10

0.10

Si

Si

----------------------------------------------------------------------------------------------------------------------------------------------------------------------------

Longitudes de anclaje y empalme

Grupo

Dimetro

Ld

Ldh

L. Empalme

L. total

[cm]

[cm]

[cm]

[m]

--------------------------------------------------------------------------------------------------------------------------1

#3

43.18

15.24

55.88

18.16

#3

55.88

15.24

71.12

18.16

---------------------------------------------------------------------------------------------------------------------------

Refuerzo transversal

Tramo

Dimetro

Cantidad

Ramas

Cerrado

[cm]
------------------------------------------------------------------------------------------------------------------------1-2

#3

51

12.70

Si

2-3

#3

32

12.70

Si

3-4

#3

51

12.70

Si

-------------------------------------------------------------------------------------------------------------------------

Separacin inicial de estribos:

Tramo

S inicial

Sin lim

[cm]

[cm]

------------------------------------------------------------

30

MEMORIA DE CLCULO ESTRUCTURAL

0-1

4.80

13.10

1-2

5.45

13.10

2-3

4.80

13.10

------------------------------------------------------------

DISEO FLEXION

Tramo: 1-2

Miembro No: 18

Altura efectiva:

d = 26.19 [cm]

Porcentaje de redistribucin de momentos:

Apoyo A = 0.00%

Apoyo B = 0.00%

Cuanta geomtrica mxima:

maxsup = 1.55%

maxinf= 1.55%

Separacin lmite entre barras por fisuracin:

sb lim = 30.61 [cm]

Momentos flectores

Estacin

Mu[Ton*m]

*Mn[Ton*m]

Asreq [cm2]

Asprov [cm2]

neg

sup

sup

(%)

sb [cm]

Mu/( *Mn)
No. Dist

neg

pos

pos

inf

inf

sup

inf

inf

---------------------------------------------------------------------------------------------------------------------------------------------------------------------------1
0%
0.40

-0.81

0.00

-2.03

2.03

1.11

0.00

2.13

2.13

0.27

0.27

8.65

2
10%
0.18

-0.37

0.00

-2.03

2.03

0.51

0.00

2.13

2.13

0.27

0.27

8.65

3
20%
0.02

-0.03

0.00

-2.03

2.03

0.04

0.00

2.13

2.13

0.27

0.27

8.65

4
30%
0.10

0.00

0.21

-2.03

2.03

0.00

0.29

2.13

2.13

0.27

0.27

8.65

5
40%
0.18

0.00

0.36

-2.03

2.03

0.00

0.48

2.13

2.13

0.27

0.27

8.65

6
50%
0.20

0.00

0.40

-2.03

2.03

0.00

0.55

2.13

2.13

0.27

0.27

8.65

31

MEMORIA DE CLCULO ESTRUCTURAL

7
60%
0.18

0.00

0.36

-2.03

2.03

0.00

0.48

2.13

2.13

0.27

0.27

8.65

8
70%
0.10

0.00

0.21

-2.03

2.03

0.00

0.29

2.13

2.13

0.27

0.27

8.65

9
80%
0.02

-0.03

0.00

-2.03

2.03

0.04

0.00

2.13

2.13

0.27

0.27

8.65

10 90%
0.18

-0.37

0.00

-2.03

2.03

0.51

0.00

2.13

2.13

0.27

0.27

8.65

11 100%
0.40

-0.81

0.00

-2.03

2.03

1.11

0.00

2.13

2.13

0.27

0.27

8.65

----------------------------------------------------------------------------------------------------------------------------------------------------------------------------

8.65

C
100%
0.40

-0.81

0.00

-2.03

2.03

1.11

0.00

2.13

2.13

0.27

0.27

----------------------------------------------------------------------------------------------------------------------------------------------------------------------------

Tramo: 2-3

Miembro No: 17

Altura efectiva:

d = 26.19 [cm]

Porcentaje de redistribucin de momentos:

Apoyo A = 0.00%

Apoyo B = 0.00%

Cuanta geomtrica mxima:

maxsup = 1.55%

maxinf= 1.55%

Separacin lmite entre barras por fisuracin:

sb lim = 30.61 [cm]

Momentos flectores

32

MEMORIA DE CLCULO ESTRUCTURAL

Estacin

Mu[Ton*m]

*Mn[Ton*m]

Asreq [cm2]

Asprov [cm2]

neg

sup

sup

(%)

sb [cm]

Mu/( *Mn)
No. Dist

neg

pos

pos

inf

inf

sup

inf

inf

---------------------------------------------------------------------------------------------------------------------------------------------------------------------------1
0%
0.16

-0.33

0.00

-2.03

2.03

0.45

0.00

2.13

2.13

0.27

0.27

8.65

2
10%
0.08

-0.15

0.00

-2.03

2.03

0.21

0.00

2.13

2.13

0.27

0.27

8.65

3
20%
0.01

-0.01

0.00

-2.03

2.03

0.02

0.00

2.13

2.13

0.27

0.27

8.65

4
30%
0.04

0.00

0.09

-2.03

2.03

0.00

0.12

2.13

2.13

0.27

0.27

8.65

5
40%
0.07

0.00

0.15

-2.03

2.03

0.00

0.20

2.13

2.13

0.27

0.27

8.65

6
50%
0.08

0.00

0.17

-2.03

2.03

0.00

0.23

2.13

2.13

0.27

0.27

8.65

7
60%
0.07

0.00

0.15

-2.03

2.03

0.00

0.20

2.13

2.13

0.27

0.27

8.65

8
70%
0.04

0.00

0.09

-2.03

2.03

0.00

0.12

2.13

2.13

0.27

0.27

8.65

9
80%
0.01

-0.01

0.00

-2.03

2.03

0.02

0.00

2.13

2.13

0.27

0.27

8.65

10 90%
0.08

-0.15

0.00

-2.03

2.03

0.21

0.00

2.13

2.13

0.27

0.27

8.65

11 100%
0.16

-0.33

0.00

-2.03

2.03

0.45

0.00

2.13

2.13

0.27

0.27

8.65

----------------------------------------------------------------------------------------------------------------------------------------------------------------------------

8.65

C
0%
0.16

-0.33

0.00

-2.03

2.03

0.45

0.00

2.13

2.13

0.27

0.27

----------------------------------------------------------------------------------------------------------------------------------------------------------------------------

33

MEMORIA DE CLCULO ESTRUCTURAL

Tramo: 3-4

Miembro No: 16

Altura efectiva:

d = 26.19 [cm]

Porcentaje de redistribucin de momentos:

Apoyo A = 0.00%

Apoyo B = 0.00%

Cuanta geomtrica mxima:

maxsup = 1.55%

maxinf= 1.55%

Separacin lmite entre barras por fisuracin:

sb lim = 30.61 [cm]

Momentos flectores

Estacin

Mu[Ton*m]

*Mn[Ton*m]

Asreq [cm2]

Asprov [cm2]

neg

sup

sup

(%)

sb [cm]

Mu/( *Mn)
No. Dist

neg

pos

pos

inf

inf

sup

inf

inf

---------------------------------------------------------------------------------------------------------------------------------------------------------------------------1
0%
0.40

-0.81

0.00

-2.03

2.03

1.11

0.00

2.13

2.13

0.27

0.27

8.65

2
10%
0.18

-0.37

0.00

-2.03

2.03

0.51

0.00

2.13

2.13

0.27

0.27

8.65

3
20%
0.02

-0.03

0.00

-2.03

2.03

0.04

0.00

2.13

2.13

0.27

0.27

8.65

4
30%
0.10

0.00

0.21

-2.03

2.03

0.00

0.29

2.13

2.13

0.27

0.27

8.65

5
40%
0.18

0.00

0.36

-2.03

2.03

0.00

0.48

2.13

2.13

0.27

0.27

8.65

34

MEMORIA DE CLCULO ESTRUCTURAL

6
50%
0.20

0.00

0.40

-2.03

2.03

0.00

0.55

2.13

2.13

0.27

0.27

8.65

7
60%
0.18

0.00

0.36

-2.03

2.03

0.00

0.48

2.13

2.13

0.27

0.27

8.65

8
70%
0.10

0.00

0.21

-2.03

2.03

0.00

0.29

2.13

2.13

0.27

0.27

8.65

9
80%
0.02

-0.03

0.00

-2.03

2.03

0.04

0.00

2.13

2.13

0.27

0.27

8.65

10 90%
0.18

-0.37

0.00

-2.03

2.03

0.51

0.00

2.13

2.13

0.27

0.27

8.65

11 100%
0.40

-0.81

0.00

-2.03

2.03

1.11

0.00

2.13

2.13

0.27

0.27

8.65

---------------------------------------------------------------------------------------------------------------------------------------------------------------------------C
0%
0.40

8.65

-0.81

0.00

-2.03

2.03

1.11

0.00

2.13

2.13

0.27

0.27

----------------------------------------------------------------------------------------------------------------------------------------------------------------------------

CORTE Y TORSIN

Tramo: 1-2

Estacin

*Vn

Miembro No: 18

Estribos

Tu

*Tn

Al

Vu

Vs

Vc

[Ton*m]

[Ton*m]

[cm2]

[Ton]

[Ton]

[Ton]

Spc prov Spc lim

Vu/( *Vn)

No.

Dist

Dim

VCT

[cm]

[cm]

[Ton]

35

MEMORIA DE CLCULO ESTRUCTURAL

----------------------------------------------------------------------------------------------------------------------------------------------------------------------------------1
13.75

0%
0.05

#3

12.70

13.10

0.00

1.69

0.00

0.66

12.29

6.04

2
13.75

10%
0.04

#3

12.70

13.10

0.00

1.69

0.00

0.58

12.29

6.04

3
13.75

20%
0.03

#3

12.70

13.10

0.00

1.69

0.00

0.43

12.29

6.04

4
13.75

30%
0.02

#3

12.70

13.10

0.00

1.69

0.00

0.29

12.29

6.04

5
13.75

40%
0.01

#3

12.70

13.10

0.00

1.69

0.00

0.14

12.29

6.04

6
13.75

50%
0.00

#3

12.70

13.10

0.00

1.69

0.00

0.00

12.29

6.04

7
13.75

60%
0.01

#3

12.70

13.10

0.00

1.69

0.00

0.14

12.29

6.04

8
13.75

70%
0.02

#3

12.70

13.10

0.00

1.69

0.00

0.29

12.29

6.04

9
13.75

80%
0.03

#3

12.70

13.10

0.00

1.69

0.00

0.43

12.29

6.04

10
13.75

90%
0.04

#3

12.70

13.10

0.00

1.69

0.00

0.58

12.29

6.04

11
13.75

100%
0.05

#3

12.70

13.10

0.00

1.69

0.00

0.66

12.29

6.04

----------------------------------------------------------------------------------------------------------------------------------------------------------------------------------C
13.75

97%
0.05

#3

12.70

13.10

0.00

1.69

0.00

0.66

12.29

6.04

-----------------------------------------------------------------------------------------------------------------------------------------------------------------------------------

36

MEMORIA DE CLCULO ESTRUCTURAL

Tramo: 2-3

Estacin

*Vn

Miembro No: 17

Estribos

Tu

*Tn

Al

Vu

Vs

Vc

[Ton*m]

[Ton*m]

[cm2]

[Ton]

[Ton]

[Ton]

Spc prov Spc lim

Vu/( *Vn)

No.

Dist

Dim

VCT

[cm]

[cm]

[Ton]

----------------------------------------------------------------------------------------------------------------------------------------------------------------------------------1
13.75

0%
0.03

#3

12.70

13.10

0.00

1.69

0.00

0.40

12.29

6.04

2
13.75

10%
0.03

#3

12.70

13.10

0.00

1.69

0.00

0.37

12.29

6.04

3
13.75

20%
0.02

#3

12.70

13.10

0.00

1.69

0.00

0.28

12.29

6.04

4
13.75

30%
0.01

#3

12.70

13.10

0.00

1.69

0.00

0.19

12.29

6.04

5
13.75

40%
0.01

#3

12.70

13.10

0.00

1.69

0.00

0.09

12.29

6.04

6
13.75

50%
0.00

#3

12.70

13.10

0.00

1.69

0.00

0.00

12.29

6.04

7
13.75

60%
0.01

#3

12.70

13.10

0.00

1.69

0.00

0.09

12.29

6.04

8
13.75

70%
0.01

#3

12.70

13.10

0.00

1.69

0.00

0.19

12.29

6.04

9
13.75

80%
0.02

#3

12.70

13.10

0.00

1.69

0.00

0.28

12.29

6.04

10
13.75

90%
0.03

#3

12.70

13.10

0.00

1.69

0.00

0.37

12.29

6.04

11
13.75

100%
0.03

#3

12.70

13.10

0.00

1.69

0.00

0.40

12.29

6.04

----------------------------------------------------------------------------------------------------------------------------------------------------------------------------------C
13.75

0%
0.03

#3

12.70

13.10

0.00

1.69

0.00

0.40

12.29

6.04

-----------------------------------------------------------------------------------------------------------------------------------------------------------------------------------

37

MEMORIA DE CLCULO ESTRUCTURAL

Tramo: 3-4

Estacin

*Vn

Miembro No: 16

Estribos

Tu

*Tn

Al

Vu

Vs

Vc

[Ton*m]

[Ton*m]

[cm2]

[Ton]

[Ton]

[Ton]

Spc prov Spc lim

Vu/( *Vn)

No.

Dist

Dim

VCT

[cm]

[cm]

[Ton]

----------------------------------------------------------------------------------------------------------------------------------------------------------------------------------1
13.75

0%
0.05

#3

12.70

13.10

0.00

1.69

0.00

0.66

12.29

6.04

2
13.75

10%
0.04

#3

12.70

13.10

0.00

1.69

0.00

0.58

12.29

6.04

3
13.75

20%
0.03

#3

12.70

13.10

0.00

1.69

0.00

0.43

12.29

6.04

4
13.75

30%
0.02

#3

12.70

13.10

0.00

1.69

0.00

0.29

12.29

6.04

5
13.75

40%
0.01

#3

12.70

13.10

0.00

1.69

0.00

0.14

12.29

6.04

6
13.75

50%
0.00

#3

12.70

13.10

0.00

1.69

0.00

0.00

12.29

6.04

7
13.75

60%
0.01

#3

12.70

13.10

0.00

1.69

0.00

0.14

12.29

6.04

8
13.75

70%
0.02

#3

12.70

13.10

0.00

1.69

0.00

0.29

12.29

6.04

9
13.75

80%
0.03

#3

12.70

13.10

0.00

1.69

0.00

0.43

12.29

6.04

10
13.75

90%
0.04

#3

12.70

13.10

0.00

1.69

0.00

0.58

12.29

6.04

38

MEMORIA DE CLCULO ESTRUCTURAL

11
13.75

100%
0.05

#3

12.70

13.10

0.00

1.69

0.00

0.66

12.29

6.04

----------------------------------------------------------------------------------------------------------------------------------------------------------------------------------C
13.75

97%
0.05

#3

12.70

13.10

0.00

1.69

0.00

0.66

12.29

6.04

-----------------------------------------------------------------------------------------------------------------------------------------------------------------------------------

VIGA AEREA N+2.88


A,B,C,D
39

MEMORIA DE CLCULO ESTRUCTURAL

N+3.9 A,D

Norma de diseo ACI 318-05 - NSR 10

________________________________________________________________________________________________________________

DATOS GENERALES:

Tramos:

Tramo

Luz

Seccin

Material

[m]
-----------------------------------------------------------------------------------------------------------------------------------------------------------1

3.62

RcBeamM 30x30cm

H 210x4200

1.45

RcBeamM 30x30cm

H 210x4200

4.93

RcBeamM 30x30cm

H 210x4200

------------------------------------------------------------------------------------------------------------------------------------------------------------

Nudos:

Distancia

Restriccin

Tx

Ty

Rz

[m]
------------------------------------------------------------------------------0.00

Articulado

3.62

Articulado

5.08

Articulado

10.00

Articulado

-------------------------------------------------------------------------------

40

MEMORIA DE CLCULO ESTRUCTURAL

Estados de carga:

Estado

Descripcin

Comb.

Categora

Duracin

-----------------------------------------------------------------------------------------------------------------------------------------------------------DL

Carga Muerta

No

DL

--

LL

Carga Viva

No

LL

--

S1

DL+LL

Si

Servicio

--

D1

DL+LL

Si

Diseo

--

------------------------------------------------------------------------------------------------------------------------------------------------------------

Reacciones:

Nudos

estado

Rx

Ry

Mz

[Ton]

[Ton]

[Ton*m]

---------------------------------------------------------------------------------------------------1

D1

0.00

0.34

0.00

D1

0.00

0.40

0.00

D1

0.00

0.99

0.00

D1

0.00

0.43

0.00

---------------------------------------------------------------------------------------------------1

Min.

0.00

0.34

0.00

Min.

0.00

0.40

0.00

Min.

0.00

0.99

0.00

Min.

0.00

0.43

0.00

41

MEMORIA DE CLCULO ESTRUCTURAL

---------------------------------------------------------------------------------------------------1

Max.

0.00

0.34

0.00

Max.

0.00

0.40

0.00

Max.

0.00

0.99

0.00

Max.

0.00

0.43

0.00

----------------------------------------------------------------------------------------------------

Esfuerzos y puntos de inflexin

Estacin

Estado

[%]

Distancia

Corte V

Momento M

[m]

[Ton]

[Ton*m]

---------------------------------------------------------------------------------------------------------0

D1

0.00

-0.34

0.00

15

D1

1.54

0.00

0.26

31

D1

3.11

0.34

0.00

36

D1

3.62

0.45

-0.20

36

D1

3.62

0.05

-0.20

51

D1

5.08

0.36

-0.49

51

D1

5.08

-0.63

-0.49

60

D1

6.01

-0.43

0.00

80

D1

8.03

0.01

0.43

100

D1

10.00

0.43

0.00

----------------------------------------------------------------------------------------------------------

Deflexiones crticas

Estado

Tramo

Distancia

[m]

[%]

Deflexin
[cm]

Admisible
f(L)

[cm]

----------------------------------------------------------------------------------------------------------------------------------------------S1

7.79

77.84

42

0.18258

(L/2697)

1.36806

MEMORIA DE CLCULO ESTRUCTURAL

-----------------------------------------------------------------------------------------------------------------------------------------------

Envolventes :

Momentos flectores M33:


Momentos [Ton*m], Longitud [m]

Esfuerzos cortantes V2:


Fuerzas [Ton], Longitud [m]

Traslacin Vertical
Deflexin [cm], Longitud [m]

43

MEMORIA DE CLCULO ESTRUCTURAL

DISEO:

Estatus

Bien

Armadura

Recubrimiento libre

2.54 [cm]

Recubrimiento mecnico

3.81 [cm]

Deformacin unitaria lmite a traccin

0.004

Refuerzo longitudinal

Grupo
Gancho2

Cantidad

Dimetro

Pos

Eje Ref. 1

Dist1

[m]

44

Eje Ref. 2

Dist2

[m]

Gancho1

MEMORIA DE CLCULO ESTRUCTURAL

---------------------------------------------------------------------------------------------------------------------------------------------------------------------------1

#5

Inferior

-0.10

0.10

Si

Si

#5

Superior

-0.10

0.10

Si

Si

----------------------------------------------------------------------------------------------------------------------------------------------------------------------------

Longitudes de anclaje y empalme

Grupo

Dimetro

Ld

Ldh

L. Empalme

L. total

[cm]

[cm]

[cm]

[m]

--------------------------------------------------------------------------------------------------------------------------1

#5

71.12

25.40

91.44

10.64

#5

91.44

25.40

119.38

10.64

---------------------------------------------------------------------------------------------------------------------------

Refuerzo transversal

Tramo

Dimetro

Cantidad

Ramas

Cerrado

[cm]
------------------------------------------------------------------------------------------------------------------------1-2

#3

27

12.70

Si

2-3

#3

10

12.70

Si

3-4

#3

37

12.70

Si

-------------------------------------------------------------------------------------------------------------------------

Separacin inicial de estribos:

Tramo

S inicial

Sin lim

[cm]

[cm]

------------------------------------------------------------

45

MEMORIA DE CLCULO ESTRUCTURAL

0-1

3.45

13.10

1-2

2.81

13.10

2-3

4.95

13.10

------------------------------------------------------------

DISEO FLEXION

Tramo: 1-2

Miembro No: 31

Altura efectiva:

d = 26.19 [cm]

Porcentaje de redistribucin de momentos:

Apoyo A = 0.00%

Apoyo B = 0.00%

Cuanta geomtrica mxima:

maxsup = 1.55%

maxinf= 1.55%

Separacin lmite entre barras por fisuracin:

sb lim = 30.61 [cm]

Momentos flectores

Estacin

Mu[Ton*m]

*Mn[Ton*m]

Asreq [cm2]

Asprov [cm2]

neg

sup

sup

(%)

sb [cm]

Mu/( *Mn)
No. Dist

neg

pos

pos

inf

inf

sup

inf

inf

---------------------------------------------------------------------------------------------------------------------------------------------------------------------------1
0%
0.00

0.00

0.00

-5.20

5.20

0.00

0.00

5.88

5.88

0.76

0.76

8.02

2
10%
0.02

0.00

0.11

-5.30

5.30

0.00

0.15

6.00

6.00

0.78

0.78

8.02

3
20%
0.04

0.00

0.19

-5.30

5.30

0.00

0.26

6.00

6.00

0.78

0.78

8.02

4
30%
0.04

0.00

0.24

-5.30

5.30

0.00

0.33

6.00

6.00

0.78

0.78

8.02

5
40%
0.05

0.00

0.26

-5.30

5.30

0.00

0.36

6.00

6.00

0.78

0.78

8.02

6
50%
0.05

0.00

0.26

-5.30

5.30

0.00

0.35

6.00

6.00

0.78

0.78

8.02

46

MEMORIA DE CLCULO ESTRUCTURAL

7
60%
0.04

0.00

0.22

-5.30

5.30

0.00

0.30

6.00

6.00

0.78

0.78

8.02

8
70%
0.03

0.00

0.16

-5.30

5.30

0.00

0.22

6.00

6.00

0.78

0.78

8.02

9
80%
0.01

0.00

0.07

-5.30

5.30

0.00

0.09

6.00

6.00

0.78

0.78

8.02

10 90%
0.01

-0.05

0.00

-5.30

5.30

0.07

0.00

6.00

6.00

0.78

0.78

8.02

11 100%
0.04

-0.20

0.00

-5.30

5.30

0.27

0.00

6.00

6.00

0.78

0.78

8.02

----------------------------------------------------------------------------------------------------------------------------------------------------------------------------

8.02

C
42%
0.05

0.00

0.26

-5.30

5.30

0.00

0.36

6.00

6.00

0.78

0.78

----------------------------------------------------------------------------------------------------------------------------------------------------------------------------

Tramo: 2-3

Miembro No: 32

Altura efectiva:

d = 26.19 [cm]

Porcentaje de redistribucin de momentos:

Apoyo A = 0.00%

Apoyo B = 0.00%

Cuanta geomtrica mxima:

maxsup = 1.55%

maxinf= 1.55%

Separacin lmite entre barras por fisuracin:

sb lim = 30.61 [cm]

Momentos flectores

47

MEMORIA DE CLCULO ESTRUCTURAL

Estacin

Mu[Ton*m]

*Mn[Ton*m]

Asreq [cm2]

Asprov [cm2]

neg

sup

sup

(%)

sb [cm]

Mu/( *Mn)
No. Dist

neg

pos

pos

inf

inf

sup

inf

inf

---------------------------------------------------------------------------------------------------------------------------------------------------------------------------1
0%
0.04

-0.20

0.00

-5.30

5.30

0.27

0.00

6.00

6.00

0.78

0.78

8.02

2
10%
0.04

-0.21

0.00

-5.30

5.30

0.29

0.00

6.00

6.00

0.78

0.78

8.02

3
20%
0.04

-0.22

0.00

-5.30

5.30

0.31

0.00

6.00

6.00

0.78

0.78

8.02

4
30%
0.05

-0.24

0.00

-5.30

5.30

0.33

0.00

6.00

6.00

0.78

0.78

8.02

5
40%
0.05

-0.26

0.00

-5.30

5.30

0.36

0.00

6.00

6.00

0.78

0.78

8.02

6
50%
0.05

-0.29

0.00

-5.30

5.30

0.40

0.00

6.00

6.00

0.78

0.78

8.02

7
60%
0.06

-0.32

0.00

-5.30

5.30

0.44

0.00

6.00

6.00

0.78

0.78

8.02

8
70%
0.07

-0.36

0.00

-5.30

5.30

0.49

0.00

6.00

6.00

0.78

0.78

8.02

9
80%
0.08

-0.40

0.00

-5.30

5.30

0.55

0.00

6.00

6.00

0.78

0.78

8.02

10 90%
0.08

-0.44

0.00

-5.30

5.30

0.61

0.00

6.00

6.00

0.78

0.78

8.02

11 100%
0.09

-0.49

0.00

-5.30

5.30

0.68

0.00

6.00

6.00

0.78

0.78

8.02

----------------------------------------------------------------------------------------------------------------------------------------------------------------------------

8.02

C
100%
0.09

-0.49

0.00

-5.30

5.30

0.68

0.00

6.00

6.00

0.78

0.78

----------------------------------------------------------------------------------------------------------------------------------------------------------------------------

48

MEMORIA DE CLCULO ESTRUCTURAL

Tramo: 3-4

Miembro No: 35

Altura efectiva:

d = 26.19 [cm]

Porcentaje de redistribucin de momentos:

Apoyo A = 0.00%

Apoyo B = 0.00%

Cuanta geomtrica mxima:

maxsup = 1.55%

maxinf= 1.55%

Separacin lmite entre barras por fisuracin:

sb lim = 30.61 [cm]

Momentos flectores

Estacin

Mu[Ton*m]

*Mn[Ton*m]

Asreq [cm2]

Asprov [cm2]

neg

sup

sup

(%)

sb [cm]

Mu/( *Mn)
No. Dist

neg

pos

pos

inf

inf

sup

inf

inf

---------------------------------------------------------------------------------------------------------------------------------------------------------------------------1
0%
0.09

-0.49

0.00

-5.30

5.30

0.68

0.00

6.00

6.00

0.78

0.78

8.02

2
10%
0.04

-0.21

0.00

-5.30

5.30

0.29

0.00

6.00

6.00

0.78

0.78

8.02

3
20%
0.00

0.00

0.02

-5.30

5.30

0.00

0.03

6.00

6.00

0.78

0.78

8.02

4
30%
0.04

0.00

0.20

-5.30

5.30

0.00

0.28

6.00

6.00

0.78

0.78

8.02

5
40%
0.06

0.00

0.33

-5.30

5.30

0.00

0.46

6.00

6.00

0.78

0.78

8.02

49

MEMORIA DE CLCULO ESTRUCTURAL

6
50%
0.08

0.00

0.41

-5.30

5.30

0.00

0.56

6.00

6.00

0.78

0.78

8.02

7
60%
0.08

0.00

0.43

-5.30

5.30

0.00

0.59

6.00

6.00

0.78

0.78

8.02

8
70%
0.08

0.00

0.40

-5.30

5.30

0.00

0.55

6.00

6.00

0.78

0.78

8.02

9
80%
0.06

0.00

0.32

-5.30

5.30

0.00

0.44

6.00

6.00

0.78

0.78

8.02

10 90%
0.04

0.00

0.19

-5.30

5.30

0.00

0.26

6.00

6.00

0.78

0.78

8.02

11 100%
0.00

0.00

0.00

-5.20

5.20

0.00

0.00

5.88

5.88

0.76

0.76

8.02

---------------------------------------------------------------------------------------------------------------------------------------------------------------------------C
0%
0.09

8.02

-0.49

0.00

-5.30

5.30

0.68

0.00

6.00

6.00

0.78

0.78

----------------------------------------------------------------------------------------------------------------------------------------------------------------------------

CORTE Y TORSIN

Tramo: 1-2

Estacin

*Vn

Miembro No: 31

Estribos

Tu

*Tn

Al

Vu

Vs

Vc

[Ton*m]

[Ton*m]

[cm2]

[Ton]

[Ton]

[Ton]

Spc prov Spc lim

Vu/( *Vn)

No.

Dist

Dim

VCT

[cm]

[cm]

[Ton]

50

MEMORIA DE CLCULO ESTRUCTURAL

----------------------------------------------------------------------------------------------------------------------------------------------------------------------------------1
13.75

0%
0.02

#3

12.70

13.10

0.00

1.69

0.00

0.28

12.29

6.04

2
13.75

10%
0.02

#3

12.70

13.10

0.00

1.69

0.00

0.26

12.29

6.04

3
13.75

20%
0.01

#3

12.70

13.10

0.00

1.69

0.00

0.18

12.29

6.04

4
13.75

30%
0.01

#3

12.70

13.10

0.00

1.69

0.00

0.10

12.29

6.04

5
13.75

40%
0.00

#3

12.70

13.10

0.00

1.69

0.00

0.02

12.29

6.04

6
13.75

50%
0.00

#3

12.70

13.10

0.00

1.69

0.00

0.06

12.29

6.04

7
13.75

60%
0.01

#3

12.70

13.10

0.00

1.69

0.00

0.13

12.29

6.04

8
13.75

70%
0.02

#3

12.70

13.10

0.00

1.69

0.00

0.21

12.29

6.04

9
13.75

80%
0.02

#3

12.70

13.10

0.00

1.69

0.00

0.29

12.29

6.04

10
13.75

90%
0.03

#3

12.70

13.10

0.00

1.69

0.00

0.37

12.29

6.04

11
13.75

100%
0.03

#3

12.70

13.10

0.00

1.69

0.00

0.39

12.29

6.04

----------------------------------------------------------------------------------------------------------------------------------------------------------------------------------C
13.75

92%
0.03

#3

12.70

13.10

0.00

1.69

0.00

0.39

12.29

6.04

-----------------------------------------------------------------------------------------------------------------------------------------------------------------------------------

51

MEMORIA DE CLCULO ESTRUCTURAL

Tramo: 2-3

Estacin

*Vn

Miembro No: 32

Estribos

Tu

*Tn

Al

Vu

Vs

Vc

[Ton*m]

[Ton*m]

[cm2]

[Ton]

[Ton]

[Ton]

Spc prov Spc lim

Vu/( *Vn)

No.

Dist

Dim

VCT

[cm]

[cm]

[Ton]

----------------------------------------------------------------------------------------------------------------------------------------------------------------------------------1
13.75

0%
0.00

#3

12.70

13.10

0.00

1.69

0.00

0.05

12.29

6.04

2
13.75

10%
0.01

#3

12.70

13.10

0.00

1.69

0.00

0.08

12.29

6.04

3
13.75

20%
0.01

#3

12.70

13.10

0.00

1.69

0.00

0.11

12.29

6.04

4
13.75

30%
0.01

#3

12.70

13.10

0.00

1.69

0.00

0.14

12.29

6.04

5
13.75

40%
0.01

#3

12.70

13.10

0.00

1.69

0.00

0.17

12.29

6.04

6
13.75

50%
0.01

#3

12.70

13.10

0.00

1.69

0.00

0.20

12.29

6.04

7
13.75

60%
0.02

#3

12.70

13.10

0.00

1.69

0.00

0.23

12.29

6.04

8
13.75

70%
0.02

#3

12.70

13.10

0.00

1.69

0.00

0.27

12.29

6.04

9
13.75

80%
0.02

#3

12.70

13.10

0.00

1.69

0.00

0.29

12.29

6.04

10
13.75

90%
0.02

#3

12.70

13.10

0.00

1.69

0.00

0.29

12.29

6.04

11
13.75

100%
0.02

#3

12.70

13.10

0.00

1.69

0.00

0.29

12.29

6.04

----------------------------------------------------------------------------------------------------------------------------------------------------------------------------------C
13.75

80%
0.02

#3

12.70

13.10

0.00

1.69

0.00

0.29

12.29

6.04

-----------------------------------------------------------------------------------------------------------------------------------------------------------------------------------

52

MEMORIA DE CLCULO ESTRUCTURAL

Tramo: 3-4

Estacin

*Vn

Miembro No: 35

Estribos

Tu

*Tn

Al

Vu

Vs

Vc

[Ton*m]

[Ton*m]

[cm2]

[Ton]

[Ton]

[Ton]

Spc prov Spc lim

Vu/( *Vn)

No.

Dist

Dim

VCT

[cm]

[cm]

[Ton]

----------------------------------------------------------------------------------------------------------------------------------------------------------------------------------1
13.75

0%
0.04

#3

12.70

13.10

0.00

1.69

0.00

0.57

12.29

6.04

2
13.75

10%
0.04

#3

12.70

13.10

0.00

1.69

0.00

0.53

12.29

6.04

3
13.75

20%
0.03

#3

12.70

13.10

0.00

1.69

0.00

0.42

12.29

6.04

4
13.75

30%
0.02

#3

12.70

13.10

0.00

1.69

0.00

0.31

12.29

6.04

5
13.75

40%
0.02

#3

12.70

13.10

0.00

1.69

0.00

0.21

12.29

6.04

6
13.75

50%
0.01

#3

12.70

13.10

0.00

1.69

0.00

0.10

12.29

6.04

7
13.75

60%
0.00

#3

12.70

13.10

0.00

1.69

0.00

0.01

12.29

6.04

8
13.75

70%
0.01

#3

12.70

13.10

0.00

1.69

0.00

0.11

12.29

6.04

9
13.75

80%
0.02

#3

12.70

13.10

0.00

1.69

0.00

0.22

12.29

6.04

10
13.75

90%
0.02

#3

12.70

13.10

0.00

1.69

0.00

0.33

12.29

6.04

53

MEMORIA DE CLCULO ESTRUCTURAL

11
13.75

100%
0.03

#3

12.70

13.10

0.00

1.69

0.00

0.37

12.29

6.04

----------------------------------------------------------------------------------------------------------------------------------------------------------------------------------C
13.75

0%
0.04

#3

12.70

13.10

0.00

1.69

0.00

0.57

12.29

6.04

-----------------------------------------------------------------------------------------------------------------------------------------------------------------------------------

VIGA AEREA N+2.88


54

MEMORIA DE CLCULO ESTRUCTURAL

1,2,3
Norma de diseo ACI 318-05 NSR 10

________________________________________________________________________________________________________________

DATOS GENERALES:

Tramos:

Tramo

Luz

Seccin

Material

[m]
-----------------------------------------------------------------------------------------------------------------------------------------------------------1

6.70

RcBeamM 30x30cm

H 210x4200

4.30

RcBeamM 30x30cm

H 210x4200

6.70

RcBeamM 30x30cm

H 210x4200

------------------------------------------------------------------------------------------------------------------------------------------------------------

Nudos:

Distancia

Restriccin

Tx

Ty

Rz

[m]
------------------------------------------------------------------------------0.00

Articulado

6.70

Articulado

11.00

Articulado

17.70

Articulado

-------------------------------------------------------------------------------

55

MEMORIA DE CLCULO ESTRUCTURAL

Estados de carga:

Estado

Descripcin

Comb.

Categora

Duracin

-----------------------------------------------------------------------------------------------------------------------------------------------------------DL

Carga Muerta

No

DL

--

LL

Carga Viva

No

LL

--

S1

DL+LL

Si

Servicio

--

D1

DL+LL

Si

Diseo

--

------------------------------------------------------------------------------------------------------------------------------------------------------------

Reacciones:

Nudos

estado

Rx

Ry

Mz

[Ton]

[Ton]

[Ton*m]

---------------------------------------------------------------------------------------------------1

D1

0.00

0.61

0.00

D1

0.00

1.30

0.00

D1

0.00

1.30

0.00

D1

0.00

0.61

0.00

---------------------------------------------------------------------------------------------------1

Min.

0.00

0.61

0.00

Min.

0.00

1.30

0.00

Min.

0.00

1.30

0.00

Min.

0.00

0.61

0.00

---------------------------------------------------------------------------------------------------1

Max.

0.00

0.61

0.00

Max.

0.00

1.30

0.00

Max.

0.00

1.30

0.00

56

MEMORIA DE CLCULO ESTRUCTURAL

Max.

0.00

0.61

0.00

----------------------------------------------------------------------------------------------------

Esfuerzos y puntos de inflexin

Estacin

Estado

[%]

Distancia

Corte V

Momento M

[m]

[Ton]

[Ton*m]

---------------------------------------------------------------------------------------------------------0

D1

0.00

-0.61

0.00

16

D1

2.85

0.01

0.85

32

D1

5.62

0.61

0.00

38

D1

6.70

0.84

-0.78

38

D1

6.70

-0.46

-0.78

62

D1

11.00

0.46

-0.78

62

D1

11.00

-0.84

-0.78

68

D1

12.08

-0.61

0.00

84

D1

14.85

-0.01

0.85

100

D1

17.70

0.61

0.00

----------------------------------------------------------------------------------------------------------

Deflexiones crticas

Estado

Tramo

Distancia

[m]

[%]

Deflexin
[cm]

Admisible
f(L)

[cm]

----------------------------------------------------------------------------------------------------------------------------------------------S1

3.01

17.03

0.69579

(L/963)

1.86111

-----------------------------------------------------------------------------------------------------------------------------------------------

Envolventes :

57

MEMORIA DE CLCULO ESTRUCTURAL

Momentos flectores M33:


Momentos [Ton*m], Longitud [m]

Esfuerzos cortantes V2:


Fuerzas [Ton], Longitud [m]

Traslacin Vertical
Deflexin [cm], Longitud [m]

58

MEMORIA DE CLCULO ESTRUCTURAL

DISEO:

Estatus

Bien

Armadura

Recubrimiento libre

2.54 [cm]

Recubrimiento mecnico

3.81 [cm]

Deformacin unitaria lmite a traccin

0.004

Refuerzo longitudinal

Grupo
Gancho2

Cantidad

Dimetro

Pos

Eje Ref. 1

Dist1

[m]

59

Eje Ref. 2

Dist2

[m]

Gancho1

MEMORIA DE CLCULO ESTRUCTURAL

---------------------------------------------------------------------------------------------------------------------------------------------------------------------------1

#5

Inferior

-0.10

0.10

Si

Si

#5

Superior

-0.10

0.10

Si

Si

----------------------------------------------------------------------------------------------------------------------------------------------------------------------------

Longitudes de anclaje y empalme

Grupo

Dimetro

Ld

Ldh

L. Empalme

L. total

[cm]

[cm]

[cm]

[m]

--------------------------------------------------------------------------------------------------------------------------1

#5

71.12

25.40

91.44

18.34

#5

91.44

25.40

119.38

18.34

---------------------------------------------------------------------------------------------------------------------------

Refuerzo transversal

Tramo

Dimetro

Cantidad

Ramas

Cerrado

[cm]
------------------------------------------------------------------------------------------------------------------------1-2

#3

51

12.70

Si

2-3

#3

32

12.70

Si

3-4

#3

51

12.70

Si

-------------------------------------------------------------------------------------------------------------------------

Separacin inicial de estribos:

Tramo

S inicial

Sin lim

[cm]

[cm]

------------------------------------------------------------

60

MEMORIA DE CLCULO ESTRUCTURAL

0-1

4.80

13.10

1-2

5.45

13.10

2-3

4.80

13.10

------------------------------------------------------------

DISEO FLEXION

Tramo: 1-2

Miembro No: 40

Altura efectiva:

d = 26.19 [cm]

Porcentaje de redistribucin de momentos:

Apoyo A = 0.00%

Apoyo B = 0.00%

Cuanta geomtrica mxima:

maxsup = 1.55%

maxinf= 1.55%

Separacin lmite entre barras por fisuracin:

sb lim = 30.61 [cm]

Momentos flectores

Estacin

Mu[Ton*m]

*Mn[Ton*m]

Asreq [cm2]

Asprov [cm2]

neg

sup

sup

(%)

sb [cm]

Mu/( *Mn)
No. Dist

neg

pos

pos

inf

inf

sup

inf

inf

---------------------------------------------------------------------------------------------------------------------------------------------------------------------------1
0%
0.00

0.00

0.00

-5.20

5.20

0.00

0.00

5.88

5.88

0.76

0.76

8.02

2
10%
0.07

0.00

0.36

-5.30

5.30

0.00

0.49

6.00

6.00

0.78

0.78

8.02

3
20%
0.12

0.00

0.62

-5.30

5.30

0.00

0.86

6.00

6.00

0.78

0.78

8.02

4
30%
0.15

0.00

0.78

-5.30

5.30

0.00

1.09

6.00

6.00

0.78

0.78

8.02

5
40%
0.16

0.00

0.85

-5.30

5.30

0.00

1.18

6.00

6.00

0.78

0.78

8.02

6
50%
0.16

0.00

0.82

-5.30

5.30

0.00

1.14

6.00

6.00

0.78

0.78

8.02

61

MEMORIA DE CLCULO ESTRUCTURAL

7
60%
0.13

0.00

0.69

-5.30

5.30

0.00

0.96

6.00

6.00

0.78

0.78

8.02

8
70%
0.09

0.00

0.47

-5.30

5.30

0.00

0.65

6.00

6.00

0.78

0.78

8.02

9
80%
0.03

0.00

0.15

-5.30

5.30

0.00

0.21

6.00

6.00

0.78

0.78

8.02

10 90%
0.05

-0.27

0.00

-5.30

5.30

0.37

0.00

6.00

6.00

0.78

0.78

8.02

11 100%
0.15

-0.78

0.00

-5.30

5.30

1.08

0.00

6.00

6.00

0.78

0.78

8.02

----------------------------------------------------------------------------------------------------------------------------------------------------------------------------

8.02

C
42%
0.16

0.00

0.85

-5.30

5.30

0.00

1.19

6.00

6.00

0.78

0.78

----------------------------------------------------------------------------------------------------------------------------------------------------------------------------

Tramo: 2-3

Miembro No: 41

Altura efectiva:

d = 26.19 [cm]

Porcentaje de redistribucin de momentos:

Apoyo A = 0.00%

Apoyo B = 0.00%

Cuanta geomtrica mxima:

maxsup = 1.55%

maxinf= 1.55%

Separacin lmite entre barras por fisuracin:

sb lim = 30.61 [cm]

Momentos flectores

62

MEMORIA DE CLCULO ESTRUCTURAL

Estacin

Mu[Ton*m]

*Mn[Ton*m]

Asreq [cm2]

Asprov [cm2]

neg

sup

sup

(%)

sb [cm]

Mu/( *Mn)
No. Dist

neg

pos

pos

inf

inf

sup

inf

inf

---------------------------------------------------------------------------------------------------------------------------------------------------------------------------1
0%
0.15

-0.78

0.00

-5.30

5.30

1.08

0.00

6.00

6.00

0.78

0.78

8.02

2
10%
0.11

-0.60

0.00

-5.30

5.30

0.83

0.00

6.00

6.00

0.78

0.78

8.02

3
20%
0.09

-0.46

0.00

-5.30

5.30

0.64

0.00

6.00

6.00

0.78

0.78

8.02

4
30%
0.07

-0.36

0.00

-5.30

5.30

0.50

0.00

6.00

6.00

0.78

0.78

8.02

5
40%
0.06

-0.30

0.00

-5.30

5.30

0.42

0.00

6.00

6.00

0.78

0.78

8.02

6
50%
0.05

-0.28

0.00

-5.30

5.30

0.39

0.00

6.00

6.00

0.78

0.78

8.02

7
60%
0.06

-0.30

0.00

-5.30

5.30

0.42

0.00

6.00

6.00

0.78

0.78

8.02

8
70%
0.07

-0.36

0.00

-5.30

5.30

0.50

0.00

6.00

6.00

0.78

0.78

8.02

9
80%
0.09

-0.46

0.00

-5.30

5.30

0.64

0.00

6.00

6.00

0.78

0.78

8.02

10 90%
0.11

-0.60

0.00

-5.30

5.30

0.83

0.00

6.00

6.00

0.78

0.78

8.02

11 100%
0.15

-0.78

0.00

-5.30

5.30

1.08

0.00

6.00

6.00

0.78

0.78

8.02

----------------------------------------------------------------------------------------------------------------------------------------------------------------------------

8.02

C
100%
0.15

-0.78

0.00

-5.30

5.30

1.08

0.00

6.00

6.00

0.78

0.78

----------------------------------------------------------------------------------------------------------------------------------------------------------------------------

63

MEMORIA DE CLCULO ESTRUCTURAL

Tramo: 3-4

Miembro No: 42

Altura efectiva:

d = 26.19 [cm]

Porcentaje de redistribucin de momentos:

Apoyo A = 0.00%

Apoyo B = 0.00%

Cuanta geomtrica mxima:

maxsup = 1.55%

maxinf= 1.55%

Separacin lmite entre barras por fisuracin:

sb lim = 30.61 [cm]

Momentos flectores

Estacin

Mu[Ton*m]

*Mn[Ton*m]

Asreq [cm2]

Asprov [cm2]

neg

sup

sup

(%)

sb [cm]

Mu/( *Mn)
No. Dist

neg

pos

pos

inf

inf

sup

inf

inf

---------------------------------------------------------------------------------------------------------------------------------------------------------------------------1
0%
0.15

-0.78

0.00

-5.30

5.30

1.08

0.00

6.00

6.00

0.78

0.78

8.02

2
10%
0.05

-0.27

0.00

-5.30

5.30

0.37

0.00

6.00

6.00

0.78

0.78

8.02

3
20%
0.03

0.00

0.15

-5.30

5.30

0.00

0.21

6.00

6.00

0.78

0.78

8.02

4
30%
0.09

0.00

0.47

-5.30

5.30

0.00

0.65

6.00

6.00

0.78

0.78

8.02

5
40%
0.13

0.00

0.69

-5.30

5.30

0.00

0.96

6.00

6.00

0.78

0.78

8.02

64

MEMORIA DE CLCULO ESTRUCTURAL

6
50%
0.16

0.00

0.82

-5.30

5.30

0.00

1.14

6.00

6.00

0.78

0.78

8.02

7
60%
0.16

0.00

0.85

-5.30

5.30

0.00

1.18

6.00

6.00

0.78

0.78

8.02

8
70%
0.15

0.00

0.78

-5.30

5.30

0.00

1.09

6.00

6.00

0.78

0.78

8.02

9
80%
0.12

0.00

0.62

-5.30

5.30

0.00

0.86

6.00

6.00

0.78

0.78

8.02

10 90%
0.07

0.00

0.36

-5.30

5.30

0.00

0.49

6.00

6.00

0.78

0.78

8.02

11 100%
0.00

0.00

0.00

-5.20

5.20

0.00

0.00

5.88

5.88

0.76

0.76

8.02

---------------------------------------------------------------------------------------------------------------------------------------------------------------------------C
58%
0.16

8.02

0.00

0.85

-5.30

5.30

0.00

1.19

6.00

6.00

0.78

0.78

----------------------------------------------------------------------------------------------------------------------------------------------------------------------------

CORTE Y TORSIN

Tramo: 1-2

Estacin

*Vn

Miembro No: 40

Estribos

Tu

*Tn

Al

Vu

Vs

Vc

[Ton*m]

[Ton*m]

[cm2]

[Ton]

[Ton]

[Ton]

Spc prov Spc lim

Vu/( *Vn)

No.

Dist

Dim

VCT

[cm]

[cm]

[Ton]

65

MEMORIA DE CLCULO ESTRUCTURAL

----------------------------------------------------------------------------------------------------------------------------------------------------------------------------------1
13.75

0%
0.04

#3

12.70

13.10

0.00

1.69

0.00

0.55

12.29

6.04

2
13.75

10%
0.03

#3

12.70

13.10

0.00

1.69

0.00

0.46

12.29

6.04

3
13.75

20%
0.02

#3

12.70

13.10

0.00

1.69

0.00

0.32

12.29

6.04

4
13.75

30%
0.01

#3

12.70

13.10

0.00

1.69

0.00

0.17

12.29

6.04

5
13.75

40%
0.00

#3

12.70

13.10

0.00

1.69

0.00

0.03

12.29

6.04

6
13.75

50%
0.01

#3

12.70

13.10

0.00

1.69

0.00

0.12

12.29

6.04

7
13.75

60%
0.02

#3

12.70

13.10

0.00

1.69

0.00

0.26

12.29

6.04

8
13.75

70%
0.03

#3

12.70

13.10

0.00

1.69

0.00

0.41

12.29

6.04

9
13.75

80%
0.04

#3

12.70

13.10

0.00

1.69

0.00

0.55

12.29

6.04

10
13.75

90%
0.05

#3

12.70

13.10

0.00

1.69

0.00

0.70

12.29

6.04

11
13.75

100%
0.06

#3

12.70

13.10

0.00

1.69

0.00

0.78

12.29

6.04

----------------------------------------------------------------------------------------------------------------------------------------------------------------------------------C
13.75

97%
0.06

#3

12.70

13.10

0.00

1.69

0.00

0.78

12.29

6.04

-----------------------------------------------------------------------------------------------------------------------------------------------------------------------------------

66

MEMORIA DE CLCULO ESTRUCTURAL

Tramo: 2-3

Estacin

*Vn

Miembro No: 41

Estribos

Tu

*Tn

Al

Vu

Vs

Vc

[Ton*m]

[Ton*m]

[cm2]

[Ton]

[Ton]

[Ton]

Spc prov Spc lim

Vu/( *Vn)

No.

Dist

Dim

VCT

[cm]

[cm]

[Ton]

----------------------------------------------------------------------------------------------------------------------------------------------------------------------------------1
13.75

0%
0.03

#3

12.70

13.10

0.00

1.69

0.00

0.40

12.29

6.04

2
13.75

10%
0.03

#3

12.70

13.10

0.00

1.69

0.00

0.37

12.29

6.04

3
13.75

20%
0.02

#3

12.70

13.10

0.00

1.69

0.00

0.28

12.29

6.04

4
13.75

30%
0.01

#3

12.70

13.10

0.00

1.69

0.00

0.19

12.29

6.04

5
13.75

40%
0.01

#3

12.70

13.10

0.00

1.69

0.00

0.09

12.29

6.04

6
13.75

50%
0.00

#3

12.70

13.10

0.00

1.69

0.00

0.00

12.29

6.04

7
13.75

60%
0.01

#3

12.70

13.10

0.00

1.69

0.00

0.09

12.29

6.04

8
13.75

70%
0.01

#3

12.70

13.10

0.00

1.69

0.00

0.19

12.29

6.04

9
13.75

80%
0.02

#3

12.70

13.10

0.00

1.69

0.00

0.28

12.29

6.04

10
13.75

90%
0.03

#3

12.70

13.10

0.00

1.69

0.00

0.37

12.29

6.04

11
13.75

100%
0.03

#3

12.70

13.10

0.00

1.69

0.00

0.40

12.29

6.04

----------------------------------------------------------------------------------------------------------------------------------------------------------------------------------C
13.75

95%
0.03

#3

12.70

13.10

0.00

1.69

0.00

0.40

12.29

6.04

-----------------------------------------------------------------------------------------------------------------------------------------------------------------------------------

67

MEMORIA DE CLCULO ESTRUCTURAL

Tramo: 3-4

Estacin

*Vn

Miembro No: 42

Estribos

Tu

*Tn

Al

Vu

Vs

Vc

[Ton*m]

[Ton*m]

[cm2]

[Ton]

[Ton]

[Ton]

Spc prov Spc lim

Vu/( *Vn)

No.

Dist

Dim

VCT

[cm]

[cm]

[Ton]

----------------------------------------------------------------------------------------------------------------------------------------------------------------------------------1
13.75

0%
0.06

#3

12.70

13.10

0.00

1.69

0.00

0.78

12.29

6.04

2
13.75

10%
0.05

#3

12.70

13.10

0.00

1.69

0.00

0.70

12.29

6.04

3
13.75

20%
0.04

#3

12.70

13.10

0.00

1.69

0.00

0.55

12.29

6.04

4
13.75

30%
0.03

#3

12.70

13.10

0.00

1.69

0.00

0.41

12.29

6.04

5
13.75

40%
0.02

#3

12.70

13.10

0.00

1.69

0.00

0.26

12.29

6.04

6
13.75

50%
0.01

#3

12.70

13.10

0.00

1.69

0.00

0.12

12.29

6.04

7
13.75

60%
0.00

#3

12.70

13.10

0.00

1.69

0.00

0.03

12.29

6.04

8
13.75

70%
0.01

#3

12.70

13.10

0.00

1.69

0.00

0.17

12.29

6.04

9
13.75

80%
0.02

#3

12.70

13.10

0.00

1.69

0.00

0.32

12.29

6.04

10
13.75

90%
0.03

#3

12.70

13.10

0.00

1.69

0.00

0.46

12.29

6.04

68

MEMORIA DE CLCULO ESTRUCTURAL

11
13.75

100%
0.04

#3

12.70

13.10

0.00

1.69

0.00

0.55

12.29

6.04

----------------------------------------------------------------------------------------------------------------------------------------------------------------------------------C
13.75

0%
0.06

#3

12.70

13.10

0.00

1.69

0.00

0.78

12.29

6.04

-----------------------------------------------------------------------------------------------------------------------------------------------------------------------------------

VIGA N+2.88
69

MEMORIA DE CLCULO ESTRUCTURAL

2`

Norma de diseo ACI 318-05 NSR 10

________________________________________________________________________________________________________________

DATOS GENERALES:

Tramos:

Tramo

Luz

Seccin

Material

[m]
-----------------------------------------------------------------------------------------------------------------------------------------------------------1

4.30

RcBeamM 20x20cm

H 210x4200

------------------------------------------------------------------------------------------------------------------------------------------------------------

Nudos:

Distancia

Restriccin

Tx

Ty

Rz

[m]
------------------------------------------------------------------------------0.00

Articulado

4.30

Articulado

-------------------------------------------------------------------------------

70

MEMORIA DE CLCULO ESTRUCTURAL

Estados de carga:

Estado

Descripcin

Comb.

Categora

Duracin

-----------------------------------------------------------------------------------------------------------------------------------------------------------DL

Carga Muerta

No

DL

--

LL

Carga Viva

No

LL

--

S1

DL+LL

Si

Servicio

--

D1

DL+LL

Si

Diseo

--

------------------------------------------------------------------------------------------------------------------------------------------------------------

Reacciones:

Nudos

estado

Rx

Ry

Mz

[Ton]

[Ton]

[Ton*m]

---------------------------------------------------------------------------------------------------1

D1

0.00

0.21

0.00

D1

0.00

0.21

0.00

---------------------------------------------------------------------------------------------------1

Min.

0.00

0.21

0.00

Min.

0.00

0.21

0.00

---------------------------------------------------------------------------------------------------1

Max.

0.00

0.21

0.00

Max.

0.00

0.21

0.00

----------------------------------------------------------------------------------------------------

Esfuerzos y puntos de inflexin

Estacin

Estado

Distancia

Corte V

71

Momento M

MEMORIA DE CLCULO ESTRUCTURAL

[%]

[m]

[Ton]

[Ton*m]

---------------------------------------------------------------------------------------------------------0

D1

0.00

-0.21

0.00

50

D1

2.15

0.00

0.22

100

D1

4.30

0.21

0.00

----------------------------------------------------------------------------------------------------------

Deflexiones crticas

Estado

Tramo

Distancia

[m]

[%]

Deflexin
[cm]

Admisible
f(L)

[cm]

----------------------------------------------------------------------------------------------------------------------------------------------S1

2.15

50.00

0.42927

(L/1002)

1.19444

-----------------------------------------------------------------------------------------------------------------------------------------------

Envolventes :

Momentos flectores M33:


Momentos [Ton*m], Longitud [m]

Esfuerzos cortantes V2:

72

MEMORIA DE CLCULO ESTRUCTURAL

Fuerzas [Ton], Longitud [m]

Traslacin Vertical
Deflexin [cm], Longitud [m]

DISEO:

Estatus

Bien

Armadura

Recubrimiento libre

73

2.54 [cm]

MEMORIA DE CLCULO ESTRUCTURAL

Recubrimiento mecnico

3.81 [cm]

Deformacin unitaria lmite a traccin

0.004

Refuerzo longitudinal

Grupo
Gancho2

Cantidad

Dimetro

Pos

Eje Ref. 1

Dist1

Eje Ref. 2

[m]

Dist2

Gancho1

[m]

---------------------------------------------------------------------------------------------------------------------------------------------------------------------------1

#4

Inferior

-0.10

0.10

Si

Si

#4

Superior

-0.10

0.10

Si

Si

----------------------------------------------------------------------------------------------------------------------------------------------------------------------------

Longitudes de anclaje y empalme

Grupo

Dimetro

Ld

Ldh

L. Empalme

L. total

[cm]

[cm]

[cm]

[m]

--------------------------------------------------------------------------------------------------------------------------1

#4

55.88

20.32

73.66

4.85

#4

73.66

20.32

93.98

4.85

---------------------------------------------------------------------------------------------------------------------------

Refuerzo transversal

Tramo

Dimetro

Cantidad

74

Ramas

Cerrado

MEMORIA DE CLCULO ESTRUCTURAL

[cm]
------------------------------------------------------------------------------------------------------------------------1-2

#3

54

7.62

Si

-------------------------------------------------------------------------------------------------------------------------

Separacin inicial de estribos:

Tramo

S inicial

Sin lim

[cm]

[cm]

-----------------------------------------------------------0-1

0.37

8.10

------------------------------------------------------------

DISEO FLEXION

Tramo: 1-2

Miembro No: 47

Altura efectiva:

d = 16.19 [cm]

Porcentaje de redistribucin de momentos:

Apoyo A = 0.00%

Apoyo B = 0.00%

Cuanta geomtrica mxima:

maxsup = 1.55%

maxinf= 1.55%

Separacin lmite entre barras por fisuracin:

sb lim = 30.61 [cm]

Momentos flectores

Estacin

Mu[Ton*m]

*Mn[Ton*m]

Asreq [cm2]

Asprov [cm2]

neg

sup

sup

(%)

sb [cm]

Mu/( *Mn)
No. Dist

neg

pos

pos

inf

inf

sup

inf

inf

----------------------------------------------------------------------------------------------------------------------------------------------------------------------------

75

MEMORIA DE CLCULO ESTRUCTURAL

1
0%
0.00

0.00

0.00

-1.80

1.80

0.00

0.00

3.87

3.87

1.33

1.33

7.94

2
10%
0.04

0.00

0.08

-1.80

1.80

0.00

0.19

3.87

3.87

1.33

1.33

7.94

3
20%
0.08

0.00

0.14

-1.80

1.80

0.00

0.35

3.87

3.87

1.33

1.33

7.94

4
30%
0.10

0.00

0.19

-1.80

1.80

0.00

0.46

3.87

3.87

1.33

1.33

7.94

5
40%
0.12

0.00

0.21

-1.80

1.80

0.00

0.52

3.87

3.87

1.33

1.33

7.94

6
50%
0.12

0.00

0.22

-1.80

1.80

0.00

0.54

3.87

3.87

1.33

1.33

7.94

7
60%
0.12

0.00

0.21

-1.80

1.80

0.00

0.52

3.87

3.87

1.33

1.33

7.94

8
70%
0.10

0.00

0.19

-1.80

1.80

0.00

0.46

3.87

3.87

1.33

1.33

7.94

9
80%
0.08

0.00

0.14

-1.80

1.80

0.00

0.35

3.87

3.87

1.33

1.33

7.94

10 90%
0.04

0.00

0.08

-1.80

1.80

0.00

0.19

3.87

3.87

1.33

1.33

7.94

11 100%
0.00

0.00

0.00

-1.80

1.80

0.00

0.00

3.87

3.87

1.33

1.33

7.94

----------------------------------------------------------------------------------------------------------------------------------------------------------------------------

7.94

C
50%
0.12

0.00

0.22

-1.80

1.80

0.00

0.54

3.87

3.87

1.33

1.33

----------------------------------------------------------------------------------------------------------------------------------------------------------------------------

76

MEMORIA DE CLCULO ESTRUCTURAL

CORTE Y TORSIN

Tramo: 1-2

Estacin

*Vn

Miembro No: 47

Estribos

Tu

*Tn

Al

Vu

Vs

Vc

[Ton*m]

[Ton*m]

[cm2]

[Ton]

[Ton]

[Ton]

Spc prov Spc lim

Vu/( *Vn)

No.

Dist

Dim

VCT

[cm]

[cm]

[Ton]

----------------------------------------------------------------------------------------------------------------------------------------------------------------------------------1
9.33 0.02

0%

#3

7.62

8.10

0.00

0.33

0.00

0.19

9.95

2.49

2
9.33 0.02

10%

#3

7.62

8.10

0.00

0.33

0.00

0.17

9.95

2.49

3
9.33 0.01

20%

#3

7.62

8.10

0.00

0.33

0.00

0.12

9.95

2.49

4
9.33 0.01

30%

#3

7.62

8.10

0.00

0.33

0.00

0.08

9.95

2.49

5
9.33 0.00

40%

#3

7.62

8.10

0.00

0.33

0.00

0.04

9.95

2.49

6
9.33 0.00

50%

#3

7.62

8.10

0.00

0.33

0.00

0.00

9.95

2.49

7
9.33 0.00

60%

#3

7.62

8.10

0.00

0.33

0.00

0.04

9.95

2.49

8
9.33 0.01

70%

#3

7.62

8.10

0.00

0.33

0.00

0.08

9.95

2.49

9
9.33 0.01

80%

#3

7.62

8.10

0.00

0.33

0.00

0.12

9.95

2.49

10
9.33 0.02

90%

#3

7.62

8.10

0.00

0.33

0.00

0.17

9.95

2.49

11 100%
9.33 0.02

#3

7.62

8.10

0.00

0.33

0.00

0.19

9.95

2.49

----------------------------------------------------------------------------------------------------------------------------------------------------------------------------------C
9.33 0.02

0%

#3

7.62

8.10

0.00

0.33

0.00

0.19

9.95

2.49

-----------------------------------------------------------------------------------------------------------------------------------------------------------------------------------

77

MEMORIA DE CLCULO ESTRUCTURAL

COLUMNA TIPO 1

Norma de Diseo

:ACI 318-05 NSR 10

Estados de carga considerados en el diseo:


1

1.4D

1.2D+1.6L

1.2D+L

1.2D+L+E

78

MEMORIA DE CLCULO ESTRUCTURAL

1.2D+L+S2

0.9D

0.9D+E

0.9D+S2

Riesgo ssmico

Riesgo Bajo

Hormign, f'c

0.21 [Ton/cm2]

Acero, fy

4.20 [Ton/cm2]

Tipo de concreto

Normal

Acero, fyt

4.20 [Ton/cm2]

Mdulo de elasticidad

213.70 [Ton/cm2]

Tipo de empalmes

Tangencial

Peso unitario

2.40 [Ton/m3]

Cuanta mnima adoptada

0.010

Recubrimiento epxico

No

Cuanta mxima adoptada

0.080

Estatus general

Materiales

Bien

DATOS COLUMNA : 1

Geometra
Tipo de seccin

Rectangular

Posicin de la columna

Centro

Distancia entre niveles

2.88 [m]

Ancho b (// a eje x)

30.00 [cm]

Alto h (// a eje y)

30.00 [cm]

Armadura

79

MEMORIA DE CLCULO ESTRUCTURAL

Longitudinal

6-T16

Recubrimiento libre

2.50 [cm]

As provista

12.06 [cm2]

Cuanta provista

1.34%

Nmero de barras // a la cara x

Con una separacin entre barras

9.10 [cm]

Nmero de barras // a la cara y

Con una separacin entre barras

19.80 [cm]

Transversal

10 T10 c/ 25.00cm

Nmero de ramas // a eje x

Nmero de ramas // a eje y

Separacin inicial (Sini)

0.00 [cm]

Parmetros de diseo

Esbeltez

Eje yy

Eje xx

------------------------------------------------------Lu[cm]

288.00

288.00

1.00

1.00

Klu/r

33.26

33.26

Cm

0.00

0.00

429.10

429.10

Si

Si

Pc[Ton]
Sway

80

MEMORIA DE CLCULO ESTRUCTURAL

-------------------------------------------------------

Solicitaciones

Estado

Ubicacin

Pu

Muxx

Muyy

Vx

[Ton]

[Ton*m]

[Ton*m]

[Ton]

Vy Carga

transversal

xx

[Ton]

yy

---------------------------------------------------------------------------------------------------------------------------------------------------------------

No

1
No

No

No

No

2
No

No

No

No

3
No

No

No

No

4
No

No

No

No

5
No

No

No

No

6
No

No

No

No

7
No

No

No

No

8
No

Superior

-4.44

0.33

0.01

0.01

-0.17

Inferior

-5.31

-0.16

-0.01

0.01

-0.17

Superior

-3.80

0.28

0.01

0.01

-0.14

Inferior

-4.55

-0.14

-0.01

0.01

-0.14

Superior

-3.80

0.28

0.01

0.01

-0.14

Inferior

-4.55

-0.14

-0.01

0.01

-0.14

Superior

-3.80

0.28

0.01

0.01

-0.14

Inferior

-4.55

-0.14

-0.01

0.01

-0.14

Superior

-3.80

0.28

0.01

0.01

-0.14

Inferior

-4.55

-0.14

-0.01

0.01

-0.14

Superior

-2.85

0.21

0.00

0.00

-0.11

Inferior

-3.41

-0.10

-0.01

0.00

-0.11

Superior

-2.85

0.21

0.00

0.00

-0.11

Inferior

-3.41

-0.10

-0.01

0.00

-0.11

Superior

-2.85

0.21

0.00

0.00

-0.11

81

MEMORIA DE CLCULO ESTRUCTURAL

Inferior
No

-3.41

-0.10

-0.01

0.00

-0.11

No

---------------------------------------------------------------------------------------------------------------------------------------------------------------

RESULTADOS COLUMNA : 1

Estatus de la columna

Bien

Compresin biaxial

Estado gobernante

Esfuerzos en barras

fs<0

Longitud de empalme

53.00 [cm]

Separacin libre en empalme :

7.50 [cm]

Estado

Pos.

Pu

Mcxx

Mcyy

[Ton]

[Ton*m]

[Ton*m]

nsxx

nsyy

Cmxx

Cmyy

-----------------------------------------------------------------------------------------------------------------------------------------------------1

Sup.

-4.44

0.33

0.01

1.00

1.00

0.403

0.425

Inf.

-5.31

-0.16

-0.01

1.00

1.00

0.403

0.425

Sup.

-3.80

0.28

0.01

1.00

1.00

0.403

0.400

Inf.

-4.55

-0.14

-0.01

1.00

1.00

0.403

0.400

Sup.

-3.80

0.28

0.01

1.00

1.00

0.403

0.400

Inf.

-4.55

-0.14

-0.01

1.00

1.00

0.403

0.400

Sup.

-3.80

0.28

0.01

1.00

1.00

0.403

0.400

Inf.

-4.55

-0.14

-0.01

1.00

1.00

0.403

0.400

Sup.

-3.80

0.28

0.01

1.00

1.00

0.403

0.400

Inf.

-4.55

-0.14

-0.01

1.00

1.00

0.403

0.400

Sup.

-2.85

0.21

0.00

1.00

1.00

0.403

0.425

Inf.

-3.41

-0.10

-0.01

1.00

1.00

0.403

0.425

82

MEMORIA DE CLCULO ESTRUCTURAL

Sup.

-2.85

0.21

0.00

1.00

1.00

0.403

0.425

Inf.

-3.41

-0.10

-0.01

1.00

1.00

0.403

0.425

Sup.

-2.85

0.21

0.00

1.00

1.00

0.403

0.425

Inf.

-3.41

-0.10

-0.01

1.00

1.00

0.403

0.425

------------------------------------------------------------------------------------------------------------------------------------------------------

Estado
Pos.
*Mnxx
Relacin de resistencia

*Mnyy

[Ton*m]

[Ton*m]

Mc/( *Mn)

Pu/( *Pn)

Asreq/Asprov

--------------------------------------------------------------------------------------------------------------------------------------------------------------------1

Sup.

Inf.

Sup.

Inf.

Sup.

Inf.

Sup.

Inf.

Sup.

Inf.

Sup.

Inf.

Sup.

0.64

0.01

0.52

0.05

0.75

0.52

-0.74

-0.05

0.22

0.06

0.75

0.22

0.55

0.02

0.51

0.05

0.75

0.51

-0.63

-0.07

0.22

0.05

0.75

0.22

0.55

0.01

0.51

0.05

0.75

0.51

-0.64

-0.06

0.22

0.05

0.75

0.22

0.55

0.01

0.51

0.05

0.75

0.51

-0.64

-0.06

0.22

0.05

0.75

0.22

0.55

0.01

0.51

0.05

0.75

0.51

-0.64

-0.06

0.22

0.05

0.75

0.22

0.42

0.01

0.51

0.03

0.75

0.51

-0.49

-0.04

0.21

0.04

0.75

0.21

0.42

0.01

0.51

0.03

0.75

0.51

83

MEMORIA DE CLCULO ESTRUCTURAL

Inf.

-0.49

-0.04

0.21

0.04

0.75

0.21

0.42

0.01

0.51

0.03

0.75

0.51

-0.49

-0.04

0.21

0.04

0.75

0.21

Sup.

Inf.

---------------------------------------------------------------------------------------------------------------------------------------------------------------------

Corte

S adoptado

25.00 [cm]

Sini adoptado

0.00 [cm]

Dir

Estado

Pos.

Gob.

S calculado

25.60 [cm]

Sini calculado

12.80 [cm]

Vu

Vc

Vs

*Vn

[Ton]

[Ton]

[Ton]

[Ton]

Vu/( *Vn)

----------------------------------------------------------------------------------------------------------------------------------------------2

Sup.

0.17

6.13

6.78

9.68

0.02

Inf.

0.17

6.17

6.78

9.71

0.02

Sup.

0.01

6.10

6.78

9.66

0.00

Inf.

0.01

6.14

6.78

9.69

0.00

-----------------------------------------------------------------------------------------------------------------------------------------------

DATOS COLUMNA : 2

Geometra
Tipo de seccin

Rectangular

Posicin de la columna

Centro

Distancia entre niveles

1.03 [m]

Ancho b (// a eje x)

30.00 [cm]

Alto h (// a eje y)

30.00 [cm]

84

MEMORIA DE CLCULO ESTRUCTURAL

Armadura

Longitudinal

6-T16

Recubrimiento libre

2.50 [cm]

As provista

12.06 [cm2]

Cuanta provista

1.34%

Nmero de barras // a la cara x

Con una separacin entre barras

9.10 [cm]

Nmero de barras // a la cara y

Con una separacin entre barras

19.80 [cm]

Transversal

4 T10 c/ 25.00cm

Nmero de ramas // a eje x

Nmero de ramas // a eje y

Separacin inicial (Sini)

0.00 [cm]

Parmetros de diseo

Esbeltez

Eje yy

Eje xx

------------------------------------------------------Lu[cm]

103.00

103.00

1.00

1.00

Klu/r

11.89

11.89

Cm

0.00

0.00

85

MEMORIA DE CLCULO ESTRUCTURAL

Pc[Ton]
Sway

3354.85

3354.85

Si

Si

-------------------------------------------------------

Solicitaciones

Estado

Ubicacin

Pu

Muxx

Muyy

Vx

[Ton]

[Ton*m]

[Ton*m]

[Ton]

Vy Carga

transversal

xx

[Ton]

yy

---------------------------------------------------------------------------------------------------------------------------------------------------------------

No

1
No

No

No

No

2
No

No

No

No

3
No

No

No

No

4
No

No

No

No

5
No

No

No

No

6
No

No

No

No

7
No

No

No

Superior

-1.62

0.04

-0.02

-0.05

-0.71

Inferior

-1.93

-0.69

0.03

-0.05

-0.71

Superior

-1.39

0.04

-0.02

-0.04

-0.60

Inferior

-1.65

-0.59

0.03

-0.04

-0.60

Superior

-1.39

0.04

-0.02

-0.04

-0.61

Inferior

-1.65

-0.59

0.03

-0.04

-0.61

Superior

-1.39

0.04

-0.02

-0.04

-0.61

Inferior

-1.65

-0.59

0.03

-0.04

-0.61

Superior

-1.39

0.04

-0.02

-0.04

-0.61

Inferior

-1.65

-0.59

0.03

-0.04

-0.61

Superior

-1.04

0.03

-0.02

-0.03

-0.46

Inferior

-1.24

-0.44

0.02

-0.03

-0.46

Superior

-1.04

0.03

-0.02

-0.03

-0.46

Inferior

-1.24

-0.44

0.02

-0.03

-0.46

86

MEMORIA DE CLCULO ESTRUCTURAL

No

8
No

No

No

Superior

-1.04

0.03

-0.02

-0.03

-0.46

Inferior

-1.24

-0.44

0.02

-0.03

-0.46

---------------------------------------------------------------------------------------------------------------------------------------------------------------

RESULTADOS COLUMNA : 2

Estatus de la columna

Bien

Compresin biaxial

Estado gobernante

Esfuerzos en barras

fs<0

Longitud de empalme

53.00 [cm]

Separacin libre en empalme :

7.50 [cm]

Estado

Pos.

Pu

Mcxx

Mcyy

[Ton]

[Ton*m]

[Ton*m]

nsxx

nsyy

Cmxx

Cmyy

-----------------------------------------------------------------------------------------------------------------------------------------------------1

Sup.

-1.62

0.04

-0.02

1.00

1.00

0.575

0.400

Inf.

-1.93

-0.69

0.03

1.00

1.00

0.575

0.400

Sup.

-1.39

0.04

-0.02

1.00

1.00

0.575

0.400

Inf.

-1.65

-0.59

0.03

1.00

1.00

0.575

0.400

Sup.

-1.39

0.04

-0.02

1.00

1.00

0.575

0.400

Inf.

-1.65

-0.59

0.03

1.00

1.00

0.575

0.400

Sup.

-1.39

0.04

-0.02

1.00

1.00

0.575

0.400

Inf.

-1.65

-0.59

0.03

1.00

1.00

0.575

0.400

Sup.

-1.39

0.04

-0.02

1.00

1.00

0.575

0.400

Inf.

-1.65

-0.59

0.03

1.00

1.00

0.575

0.400

Sup.

-1.04

0.03

-0.02

1.00

1.00

0.575

0.400

87

MEMORIA DE CLCULO ESTRUCTURAL

Inf.

-1.24

-0.44

0.02

1.00

1.00

0.575

0.400

Sup.

-1.04

0.03

-0.02

1.00

1.00

0.575

0.400

Inf.

-1.24

-0.44

0.02

1.00

1.00

0.575

0.400

Sup.

-1.04

0.03

-0.02

1.00

1.00

0.575

0.400

Inf.

-1.24

-0.44

0.02

1.00

1.00

0.575

0.400

------------------------------------------------------------------------------------------------------------------------------------------------------

Estado
Pos.
*Mnxx
Relacin de resistencia

*Mnyy

[Ton*m]

[Ton*m]

Mc/( *Mn)

Pu/( *Pn)

Asreq/Asprov

--------------------------------------------------------------------------------------------------------------------------------------------------------------------1

Sup.

Inf.

Sup.

Inf.

Sup.

Inf.

Sup.

Inf.

Sup.

Inf.

Sup.

Inf.

5.15

-2.95

0.01

0.01

0.75

0.01

-5.49

0.24

0.13

0.02

0.75

0.13

5.26

-2.77

0.01

0.01

0.75

0.01

-5.46

0.24

0.11

0.02

0.75

0.11

5.24

-2.85

0.01

0.01

0.75

0.01

-5.46

0.24

0.11

0.02

0.75

0.11

5.24

-2.85

0.01

0.01

0.75

0.01

-5.46

0.24

0.11

0.02

0.75

0.11

5.24

-2.85

0.01

0.01

0.75

0.01

-5.46

0.24

0.11

0.02

0.75

0.11

5.12

-2.93

0.01

0.01

0.75

0.01

-5.41

0.23

0.08

0.01

0.75

0.08

88

MEMORIA DE CLCULO ESTRUCTURAL

Sup.

Inf.

5.12

-2.93

0.01

0.01

0.75

0.01

-5.41

0.23

0.08

0.01

0.75

0.08

5.12

-2.93

0.01

0.01

0.75

0.01

-5.41

0.23

0.08

0.01

0.75

0.08

Sup.

Inf.

---------------------------------------------------------------------------------------------------------------------------------------------------------------------

Corte

S adoptado

25.00 [cm]

Sini adoptado

0.00 [cm]

Dir

Estado

Pos.

Gob.

S calculado

25.60 [cm]

Sini calculado

12.80 [cm]

Vu

Vc

Vs

*Vn

[Ton]

[Ton]

[Ton]

[Ton]

Vu/( *Vn)

----------------------------------------------------------------------------------------------------------------------------------------------2

Sup.

0.71

6.00

6.78

9.58

0.07

Inf.

0.71

6.02

6.78

9.60

0.07

Sup.

0.05

6.00

6.78

9.58

0.01

Inf.

0.05

6.02

6.78

9.60

0.01

-----------------------------------------------------------------------------------------------------------------------------------------------

Notas aclaratorias:

* No se considera la torsin en el diseo.

* Slo se toman en cuenta columnas de seccin rectangular o circular.

* Cada columna se verifica slo considerando los esfuerzos en sus extremos.

89

MEMORIA DE CLCULO ESTRUCTURAL

* El refuerzo transversal se encuentra ordenado de abajo hacia arriba de cada columna.

* Lu = Longitud no arriostrada.

* K = Factor de longitud efectiva.

* Cm = Factor que relaciona el diagrama de momentos real con un diagrama de momentos uniforme equivalente.

* Sway = "Si" si se considera a la columna intraslacional en su eje local.

* Mc = Momento mayorado de clculo utilizado para el diseo. Este considera el efecto de la esbeltez del soporte. Mc =
Mu*ns.

* ns = Factor de ampliacin de momentos para considerar el efecto de la curvatura del miembro entre extremos (Efecto P-

).

* Mn = Momento nominal resistente.

* Mc/(*Mn) = Relacin de resistencia. Adicionalmente se muestra un grfico de barras que permite observar las relaciones
Mc/(*Mn) relativas entre los diferentes estados de carga. Si alguna barra se encuentra en rojo, la relacin ser mayor a la
unidad.

COLUMNA TIPO 2
Norma de Diseo

ACI 318-05

90

MEMORIA DE CLCULO ESTRUCTURAL

Estados de carga considerados en el diseo:


1

1.4D

1.2D+1.6L

1.2D+L

1.2D+L+E

1.2D+L+S2

0.9D

0.9D+E

0.9D+S2

Riesgo ssmico

Riesgo Bajo

Hormign, f'c

0.21 [Ton/cm2]

Acero, fy

4.20 [Ton/cm2]

Tipo de concreto

Normal

Acero, fyt

4.20 [Ton/cm2]

Mdulo de elasticidad

213.70 [Ton/cm2]

Tipo de empalmes

Tangencial

Peso unitario

2.40 [Ton/m3]

Cuanta mnima adoptada

0.010

Recubrimiento epxico

No

Cuanta mxima adoptada

0.080

Estatus general

Materiales

Bien

DATOS COLUMNA : 1

Geometra
Tipo de seccin

Rectangular

Posicin de la columna

Centro

Distancia entre niveles

2.88 [m]

Ancho b (// a eje x)

30.00 [cm]

Alto h (// a eje y)

30.00 [cm]

91

MEMORIA DE CLCULO ESTRUCTURAL

Armadura

Longitudinal

6-T16

Recubrimiento libre

2.50 [cm]

As provista

12.06 [cm2]

Cuanta provista

1.34%

Nmero de barras // a la cara x

Con una separacin entre barras

9.10 [cm]

Nmero de barras // a la cara y

Con una separacin entre barras

19.80 [cm]

Transversal

10 T10 c/ 25.00cm

Nmero de ramas // a eje x

Nmero de ramas // a eje y

Separacin inicial (Sini)

0.00 [cm]

Parmetros de diseo

Esbeltez

Eje yy

Eje xx

------------------------------------------------------Lu[cm]

288.00

288.00

1.00

1.00

Klu/r

33.26

33.26

Cm

0.00

0.00

92

MEMORIA DE CLCULO ESTRUCTURAL

Pc[Ton]
Sway

429.10

429.10

Si

Si

-------------------------------------------------------

Solicitaciones

Estado

Ubicacin

Pu

Muxx

Muyy

Vx

[Ton]

[Ton*m]

[Ton*m]

[Ton]

Vy Carga

transversal

xx

[Ton]

yy

---------------------------------------------------------------------------------------------------------------------------------------------------------------

No

1
No

No

No

No

2
No

No

No

No

3
No

No

No

No

4
No

No

No

No

5
No

No

No

No

6
No

No

No

No

7
No

No

No

Superior

-6.75

0.39

1.04

0.54

-0.20

Inferior

-7.63

-0.19

-0.52

0.54

-0.20

Superior

-6.28

0.42

0.99

0.52

-0.22

Inferior

-7.03

-0.21

-0.50

0.52

-0.22

Superior

-6.10

0.39

0.96

0.50

-0.20

Inferior

-6.84

-0.19

-0.48

0.50

-0.20

Superior

-6.10

0.39

0.96

0.50

-0.20

Inferior

-6.84

-0.19

-0.48

0.50

-0.20

Superior

-6.10

0.39

0.96

0.50

-0.20

Inferior

-6.84

-0.19

-0.48

0.50

-0.20

Superior

-4.34

0.25

0.67

0.35

-0.13

Inferior

-4.90

-0.12

-0.34

0.35

-0.13

Superior

-4.34

0.25

0.67

0.35

-0.13

Inferior

-4.90

-0.12

-0.34

0.35

-0.13

93

MEMORIA DE CLCULO ESTRUCTURAL

No

8
No

No

No

Superior

-4.34

0.25

0.67

0.35

-0.13

Inferior

-4.90

-0.12

-0.34

0.35

-0.13

---------------------------------------------------------------------------------------------------------------------------------------------------------------

RESULTADOS COLUMNA : 1

Estatus de la columna

Bien

Compresin biaxial

Estado gobernante

Esfuerzos en barras

fs<0

Longitud de empalme

53.00 [cm]

Separacin libre en empalme :

7.50 [cm]

Estado

Pos.

Pu

Mcxx

Mcyy

[Ton]

[Ton*m]

[Ton*m]

nsxx

nsyy

Cmxx

Cmyy

-----------------------------------------------------------------------------------------------------------------------------------------------------1

Sup.

-6.75

0.39

1.04

1.00

1.00

0.402

0.400

Inf.

-7.63

-0.19

-0.52

1.00

1.00

0.402

0.400

Sup.

-6.28

0.42

0.99

1.00

1.00

0.403

0.400

Inf.

-7.03

-0.21

-0.50

1.00

1.00

0.403

0.400

Sup.

-6.10

0.39

0.96

1.00

1.00

0.403

0.400

Inf.

-6.84

-0.19

-0.48

1.00

1.00

0.403

0.400

Sup.

-6.10

0.39

0.96

1.00

1.00

0.403

0.400

Inf.

-6.84

-0.19

-0.48

1.00

1.00

0.403

0.400

Sup.

-6.10

0.39

0.96

1.00

1.00

0.403

0.400

Inf.

-6.84

-0.19

-0.48

1.00

1.00

0.403

0.400

Sup.

-4.34

0.25

0.67

1.00

1.00

0.403

0.400

94

MEMORIA DE CLCULO ESTRUCTURAL

Inf.

-4.90

-0.12

-0.34

1.00

1.00

0.403

0.400

Sup.

-4.34

0.25

0.67

1.00

1.00

0.403

0.400

Inf.

-4.90

-0.12

-0.34

1.00

1.00

0.403

0.400

Sup.

-4.34

0.25

0.67

1.00

1.00

0.403

0.400

Inf.

-4.90

-0.12

-0.34

1.00

1.00

0.403

0.400

------------------------------------------------------------------------------------------------------------------------------------------------------

Estado
Pos.
*Mnxx
Relacin de resistencia

*Mnyy

[Ton*m]

[Ton*m]

Mc/( *Mn)

Pu/( *Pn)

Asreq/Asprov

--------------------------------------------------------------------------------------------------------------------------------------------------------------------1

Sup.

Inf.

Sup.

Inf.

Sup.

Inf.

Sup.

Inf.

Sup.

Inf.

Sup.

Inf.

2.02

5.41

0.19

0.06

0.75

0.19

-2.01

-5.47

0.10

0.07

0.75

0.10

2.24

5.26

0.19

0.06

0.75

0.19

-2.21

-5.31

0.09

0.06

0.75

0.09

2.16

5.30

0.18

0.06

0.75

0.18

-2.14

-5.36

0.09

0.06

0.75

0.09

2.16

5.30

0.18

0.06

0.75

0.18

-2.14

-5.36

0.09

0.06

0.75

0.09

2.16

5.30

0.18

0.06

0.75

0.18

-2.14

-5.36

0.09

0.06

0.75

0.09

1.97

5.29

0.13

0.04

0.75

0.13

-1.95

-5.33

0.06

0.05

0.75

0.06

95

MEMORIA DE CLCULO ESTRUCTURAL

Sup.

Inf.

1.97

5.29

0.13

0.04

0.75

0.13

-1.95

-5.33

0.06

0.05

0.75

0.06

1.97

5.29

0.13

0.04

0.75

0.13

-1.95

-5.33

0.06

0.05

0.75

0.06

Sup.

Inf.

---------------------------------------------------------------------------------------------------------------------------------------------------------------------

Corte

S adoptado

25.00 [cm]

Sini adoptado

0.00 [cm]

Dir

Estado

Pos.

Gob.

S calculado

25.60 [cm]

Sini calculado

12.80 [cm]

Vu

Vc

Vs

*Vn

[Ton]

[Ton]

[Ton]

[Ton]

Vu/( *Vn)

----------------------------------------------------------------------------------------------------------------------------------------------2

Sup.

0.22

6.22

6.78

9.75

0.02

Inf.

0.22

6.25

6.78

9.77

0.02

Sup.

0.54

6.24

6.78

9.76

0.06

Inf.

0.54

6.28

6.78

9.80

0.06

96

MEMORIA DE CLCULO ESTRUCTURAL

COLUMNA TIPO 3
Norma de Diseo

ACI 318-05

Estados de carga considerados en el diseo:


1

1.4D

1.2D+1.6L

1.2D+L

1.2D+L+E

1.2D+L+S2

0.9D

0.9D+E

0.9D+S2

Riesgo ssmico

Riesgo Bajo

97

MEMORIA DE CLCULO ESTRUCTURAL

Materiales
Hormign, f'c

0.21 [Ton/cm2]

Acero, fy

4.20 [Ton/cm2]

Tipo de concreto

Normal

Acero, fyt

4.20 [Ton/cm2]

Mdulo de elasticidad

213.70 [Ton/cm2]

Tipo de empalmes

Tangencial

Peso unitario

2.40 [Ton/m3]

Cuanta mnima adoptada

0.010

Recubrimiento epxico

No

Cuanta mxima adoptada

0.080

Estatus general

Bien

DATOS COLUMNA : 1

Geometra
Tipo de seccin

Rectangular

Posicin de la columna

Centro

Distancia entre niveles

2.88 [m]

Ancho b (// a eje x)

20.00 [cm]

Alto h (// a eje y)

15.00 [cm]

Armadura

Longitudinal

4-T16

Recubrimiento libre

2.50 [cm]

As provista

8.04 [cm2]

Cuanta provista

2.68%

98

MEMORIA DE CLCULO ESTRUCTURAL

Nmero de barras // a la cara x

Con una separacin entre barras

9.80 [cm]

Nmero de barras // a la cara y

Con una separacin entre barras

4.80 [cm]

Transversal

17 T10 c/ 15.00cm

Nmero de ramas // a eje x

Nmero de ramas // a eje y

Separacin inicial (Sini)

0.00 [cm]

Parmetros de diseo

Esbeltez

Eje yy

Eje xx

------------------------------------------------------Lu[cm]

288.00

288.00

1.00

1.00

Klu/r

49.88

66.51

Cm

0.00

0.00

Pc[Ton]

35.76

63.57

Si

Si

Sway

-------------------------------------------------------

Solicitaciones

Estado

Ubicacin

Pu

Muxx

Muyy

Vx

[Ton]

[Ton*m]

[Ton*m]

[Ton]

Vy Carga

transversal

xx

[Ton]

yy

---------------------------------------------------------------------------------------------------------------------------------------------------------------

No

1
No

No

No

Superior

-0.62

0.12

-0.07

-0.03

-0.06

Inferior

-0.91

-0.06

0.03

-0.03

-0.06

99

MEMORIA DE CLCULO ESTRUCTURAL

No

2
No

No

No

No

3
No

No

No

No

4
No

No

No

No

5
No

No

No

No

6
No

No

No

No

7
No

No

No

No

8
No

No

No

Superior

-0.47

0.10

-0.06

-0.03

-0.05

Inferior

-0.72

-0.05

0.03

-0.03

-0.05

Superior

-0.49

0.10

-0.06

-0.03

-0.05

Inferior

-0.74

-0.05

0.03

-0.03

-0.05

Superior

-0.49

0.10

-0.06

-0.03

-0.05

Inferior

-0.74

-0.05

0.03

-0.03

-0.05

Superior

-0.49

0.10

-0.06

-0.03

-0.05

Inferior

-0.74

-0.05

0.03

-0.03

-0.05

Superior

-0.40

0.07

-0.04

-0.02

-0.04

Inferior

-0.58

-0.04

0.02

-0.02

-0.04

Superior

-0.40

0.07

-0.04

-0.02

-0.04

Inferior

-0.58

-0.04

0.02

-0.02

-0.04

Superior

-0.40

0.07

-0.04

-0.02

-0.04

Inferior

-0.58

-0.04

0.02

-0.02

-0.04

---------------------------------------------------------------------------------------------------------------------------------------------------------------

RESULTADOS COLUMNA : 1

Estatus de la columna

Bien

Compresin biaxial

Estado gobernante

100

MEMORIA DE CLCULO ESTRUCTURAL

Esfuerzos en barras

fs<0

Longitud de empalme

53.00 [cm]

Separacin libre en empalme :

3.20 [cm]

Estado

Pos.

Pu

Mcxx

Mcyy

[Ton]

[Ton*m]

[Ton*m]

nsxx

nsyy

Cmxx

Cmyy

-----------------------------------------------------------------------------------------------------------------------------------------------------1

Sup.

-0.62

0.12

-0.07

1.00

1.00

0.400

0.409

Inf.

-0.91

-0.06

0.03

1.00

1.00

0.400

0.409

Sup.

-0.47

0.10

-0.06

1.00

1.00

0.400

0.412

Inf.

-0.72

-0.05

0.03

1.00

1.00

0.400

0.412

Sup.

-0.49

0.10

-0.06

1.00

1.00

0.400

0.411

Inf.

-0.74

-0.05

0.03

1.00

1.00

0.400

0.411

Sup.

-0.49

0.10

-0.06

1.00

1.00

0.400

0.411

Inf.

-0.74

-0.05

0.03

1.00

1.00

0.400

0.411

Sup.

-0.49

0.10

-0.06

1.00

1.00

0.400

0.411

Inf.

-0.74

-0.05

0.03

1.00

1.00

0.400

0.411

Sup.

-0.40

0.07

-0.04

1.00

1.00

0.400

0.409

Inf.

-0.58

-0.04

0.02

1.00

1.00

0.400

0.409

Sup.

-0.40

0.07

-0.04

1.00

1.00

0.400

0.409

Inf.

-0.58

-0.04

0.02

1.00

1.00

0.400

0.409

Sup.

-0.40

0.07

-0.04

1.00

1.00

0.400

0.409

Inf.

-0.58

-0.04

0.02

1.00

1.00

0.400

0.409

------------------------------------------------------------------------------------------------------------------------------------------------------

Estado
Pos.
*Mnxx
Relacin de resistencia

*Mnyy

[Ton*m]

[Ton*m]

Mc/( *Mn)

Pu/( *Pn)

Asreq/Asprov

--------------------------------------------------------------------------------------------------------------------------------------------------------------------1

Sup.

1.07

-0.62

101

0.11

0.01

0.37

0.11

MEMORIA DE CLCULO ESTRUCTURAL

Inf.

Sup.

Inf.

Sup.

Inf.

Sup.

Inf.

Sup.

Inf.

Sup.

Inf.

Sup.

Inf.

Sup.

Inf.

-1.08

0.60

0.05

0.02

0.37

0.05

1.06

-0.64

0.10

0.01

0.37

0.10

-1.08

0.61

0.05

0.02

0.37

0.05

1.06

-0.63

0.09

0.01

0.37

0.09

-1.08

0.60

0.05

0.02

0.37

0.05

1.06

-0.63

0.09

0.01

0.37

0.09

-1.08

0.60

0.05

0.02

0.37

0.05

1.06

-0.63

0.09

0.01

0.37

0.09

-1.08

0.60

0.05

0.02

0.37

0.05

1.07

-0.62

0.07

0.01

0.37

0.07

-1.08

0.60

0.03

0.01

0.37

0.03

1.07

-0.62

0.07

0.01

0.37

0.07

-1.08

0.60

0.03

0.01

0.37

0.03

1.07

-0.62

0.07

0.01

0.37

0.07

-1.08

0.60

0.03

0.01

0.37

0.03

---------------------------------------------------------------------------------------------------------------------------------------------------------------------

Corte

S adoptado

15.00 [cm]

Sini adoptado

0.00 [cm]

102

S calculado

15.00 [cm]

Sini calculado

7.50 [cm]

MEMORIA DE CLCULO ESTRUCTURAL

Dir

Estado

Vu

Vc

Vs

*Vn

[Ton]

[Ton]

[Ton]

[Ton]

Pos.

Gob.

Vu/( *Vn)

----------------------------------------------------------------------------------------------------------------------------------------------2

Sup.

0.06

1.67

4.70

4.78

0.01

Inf.

0.06

1.68

4.70

4.79

0.01

Sup.

0.03

1.84

6.90

6.55

0.01

Inf.

0.03

1.85

6.90

6.56

0.01

-----------------------------------------------------------------------------------------------------------------------------------------------

ZAPATA TIPO
DATOS GENERALES:

Estatus global

Bien

Norma de Diseo

ACI 318-05

Tipo de zapata

Aislada

Tipo de columna

Concreto

Geometra

103

MEMORIA DE CLCULO ESTRUCTURAL

Largo

0.80 [m]

Ancho

0.80 [m]

Espesor

0.40 [m]

Profundidad de la base

1.10 [m]

Area de la base

0.64 [m2]

Volumen de la zapata

0.26 [m3]

Largo de la columna

30.00 [cm]

Ancho de la columna

30.00 [cm]

104

MEMORIA DE CLCULO ESTRUCTURAL

Posicin de la columna respecto al c.g. de la zapata

Centrada

Materiales
Hormign, f'c

0.21 [Ton/cm2]

Tipo de concreto

Normal

Mdulo de elasticidad hormign

213.70 [Ton/cm2]

Peso unitario

2.40 [Ton/m3]

Acero, fy

Recubrimiento epxico

Mdulo de elasticidad acero

[Ton/c...

Suelo
Coeficiente de balasto

: 3203.68 [Ton/m3]

Peso unitario (hmedo)

21.00 [Ton/m3]

Armadura de la zapata
Recubrimiento libre

7.62 [cm]

Relacin mxima permitida entre Rho/Rho balanceo

0.75

Armadura // a L (xx) inferior

4-#5 @ 20.32cm

Armadura // a B (zz) inferior

4-#5 @ 20.32cm (Zona 1)

Armadura 1

8-#6

Recubrimiento libre

2.54 [cm]

Longitud de anclaje calcular

a traccin

Nmero de barras // al eje x

Nmero de barras // al eje z

Estribos

#3 @ 20.32cm

Nmero de ramas // al eje x

Nmero de ramas // al eje z

Armadura de espera

105

4.20 [Ton/cm2]

29000.00

MEMORIA DE CLCULO ESTRUCTURAL

Estados de carga considerados


Servicio:
1

_1

_2

_3

_4

_5

_6

_7

_8

_1

_2

_3

_4

_5

_6

_7

_8

Lmite ultimo:

Cargas

Estado

Zapata

Nudo

Axial

Mxx

Mzz

Vx

Vz

[Ton]

[Ton*m]

[Ton*m]

[Ton]

[Ton]

--------------------------------------------------------------------------------------------------------------------------------------------D

11

7.32

0.02

-0.61

-0.14

0.39

11

0.31

-0.03

-0.03

-0.03

0.03

11

0.00

0.00

0.00

0.00

0.00

S2

11

0.00

0.00

0.00

0.00

0.00

_1

11

10.25

0.03

-0.86

-0.20

0.54

_2

11

9.28

-0.02

-0.78

-0.22

0.52

106

MEMORIA DE CLCULO ESTRUCTURAL

_3

11

9.10

0.00

-0.76

-0.20

0.50

_4

11

9.10

0.00

-0.76

-0.20

0.50

_5

11

9.10

0.00

-0.76

-0.20

0.50

_6

11

6.59

0.02

-0.55

-0.13

0.35

_7

11

6.59

0.02

-0.55

-0.13

0.35

_8

11

6.59

0.02

-0.55

-0.13

0.35

---------------------------------------------------------------------------------------------------------------------------------------------

RESULTADOS:

Estatus

Existen advertencias de diseo


- Insuficiente factor de seguridad a capacidad portante o tensin admisible

Interaccin suelo - fundacin

Presin admisible

0.002 [Ton/cm2]

Estado gobernante

1-1

Estado

qprom

qmax

max

Zapata

[Ton/cm2]

[Ton/cm2]

[cm]

Area en compresin
[m2]

(%)

-------------------------------------------------------------------------------------------------------------------------------1-1

0.00186

0.00317

0.989

0.64

100

--------------------------------------------------------------------------------------------------------------------------------

Flexin

Factor

0.90

Cuanta mnima

0.00200

107

MEMORIA DE CLCULO ESTRUCTURAL

Longitud de desarrollo
Eje

Pos.

ld

lhd

[cm]

[cm]

Dist1

Dist2

[cm]

[cm]

------------------------------------------------------------------------------------------------------------------------zz

Inf.

30.48

15.24

17.38

17.38

xx

Inf.

30.48

15.24

17.38

17.38

-------------------------------------------------------------------------------------------------------------------------

Eje

Pos.

Estado

Mu

*Mn

Zapata

[Ton*m]

[Ton*m]

Asreq

Asprov Asreq/Asprov

Mu/

( *Mn)
[cm2]

[cm2]

-------------------------------------------------------------------------------------------------------------------------------------------------------------------------zz

Sup.

1-1

0.00

0.00

0.00

0.00

0.000

0.000

zz

Inf.

1-1

0.62

9.20

6.40

8.00

0.800

0.067

xx

Sup.

1-1

0.00

0.00

0.00

0.00

0.000

0.000

xx

Inf.

1-1

0.44

8.72

6.40

8.00

0.800

0.051

--------------------------------------------------------------------------------------------------------------------------------------------------------------------------

Corte

Factor

0.75

Area de corte plano zz

0.25 [m2]

Area de corte plano xx

0.24 [m2]

Plano

Estado

Vu

Zapata

[Ton]

Vc
[Ton]

108

Vu/( *Vn)

MEMORIA DE CLCULO ESTRUCTURAL

------------------------------------------------------------------------------------------------------------------------xy

1-1

0.00

18.44

0.000

yz

1-1

0.00

19.42

0.000

-------------------------------------------------------------------------------------------------------------------------

Corte por punzonamiento

Permetro de corte (bo 1)

2.43 [m]

Area de punzonamiento

0.75 [m2]

Columna

Estado

Vu

Zapata

[Ton]

Vc

Vu/( *Vn)

[Ton]

------------------------------------------------------------------------------------------------------------------------columna 1

1-1

4.33

115.09

0.050

-------------------------------------------------------------------------------------------------------------------------

Notas aclaratorias:

* El suelo bajo la zapata se considera elstico y homogneo. Se asume una variacin lineal de presin en el suelo.

* El refuerzo requerido a flexin considera por lo menos la cuanta mnima.

* En relacin al diseo a flexin, el mximo momento de diseo se calcula en secciones crticas ubicadas en los paramentos
del soporte

* Slo se toman en cuenta zapatas de seccin constante con columnas rectangulares.

* La resistencia lineal a corte se verifica en secciones crticas ubicadas a una distancia d (d = altura til) a partir del
paramento del soporte

109

MEMORIA DE CLCULO ESTRUCTURAL

* La resistencia a punzonamiento se verifica en una seccin perimetral ubicada a una distancia d/2 alrededor de las caras
del soporte

* No se considera refuerzo transversal en las zapatas.

* Todo valor en rojo no cumple con alguna provisin de la norma.

*qprom = Presin promedio (compresin) sobre terreno.

*qmax = Mxima presin (compresin) sobre el terreno.

*max = asentamiento total mximo (considerando el suelo como material elstico por medio del coeficiente de balasto).

* Mn = Momento nominal resistente.

* Mu/(*Mn) = Relacin de resistencia.

* Vn = Fuerza nominal de corte o punzonamiento (para zapatas Vn=Vc).

* Vu/(*Vn) = Relacin de resistencia a corte o punzonamiento.

110

MEMORIA DE CLCULO ESTRUCTURAL

DISEO DE CERCHA TIPO

1. CARGAS DE DISEO
Carga muerta D: NSR- 10

5 Kg/m

Peso propio de una teja + iluminacin de cubierta: 12 Kg/m


Peso propio de una correa: 6.37 Kgf/m
Carga muerta x correa 12 Kgf/m2 x 1.65m=
19.80Kgf/m +6.37 Kgf/m =26.17 Kgf/m

Carga viva L: NSR- 10

35 Kg/m

Carga viva = 50 Kgf/m2


Carga viva total por correa 50 Kgf/m2 x 1.65 m = 82.50 Kgf/m

CARGA POR NIEVE (GRANIZO)


50 Kg/m

CARGA POR VIENTO

111

MEMORIA DE CLCULO ESTRUCTURAL

112

MEMORIA DE CLCULO ESTRUCTURAL

RESULTADOS DISEO
Norma de diseo: ANSI/AISC 360-05 ASD - NSR 10

________________________________________________________________________________________________________________
Nota.- Solamente se imprimen los elementos seleccionados AISC. Los elementos AISI no son mostrados

Reporte: AISC Breve


_______________________________________________________

Miembro

Estatus de diseo :

tipo cercha
Bien

_______________________________________________________

PROPIEDADES
Seccin : VIGA LATERAL TIPO 1

113

MEMORIA DE CLCULO ESTRUCTURAL

Altura (a)

12.00

[cm]

Ancho (b)

12.00

[cm]

0.20

[cm]

Espesor (T)

Propiedades de la seccin

Unidad

Area completa de la seccin (A)

[cm2]

9.44

Momento de inercia (eje local) (I)

[cm4]

219.09

219.09

Momento de inercia (eje principal) (I')

[cm4]

219.09

219.09

Constante de diseo para la flexin (eje principal) (J')

[cm]

0.00

0.00

Radio de giro (eje local) (r)

[cm]

4.82

4.82

Radio de giro (eje principal) (r')

[cm]

4.82

4.82

Constante de torsin de Saint Venant (J)

[cm4]

328.61

Coeficiente de alabeo de la seccin (Cw)

[cm6]

0.00

Distancia del centro de gravedad al centro de corte (eje principal) (xo, yo)
0.00

Eje mayor

Eje menor

[cm]

0.00

Mdulo de seccin elstico superior de la seccin (eje local) (S sup)


36.51

[cm3]

36.51

Mdulo de seccin elstico inferior de la seccin (eje local) (S inf) [cm3]

36.51

36.51

Mdulo de seccin elstico superior de la seccin (eje principal) (S' sup)


36.51

[cm3]

36.51

Mdulo de seccin elstico inferior de la seccin (eje principal) (S' inf)


36.51

[cm3]

36.51

Mdulo de seccin plstico (eje local) (Z)

[cm3]

41.77

41.77

Mdulo de seccin plstico (eje principal) (Z')

[cm3]

41.77

41.77

Radio de giro polar (ro)

[cm]

6.81

Area para corte (Aw)

[cm2]

4.72

Mdulo de torsin (1/C)

--

0.02

114

4.72

MEMORIA DE CLCULO ESTRUCTURAL

Material : A500 GrC rectangular

Propiedades

Unidad

Valor

------------------------------------------------------------------------------------------------------------------------------Tensin de fluencia (Fy):

[Ton/cm2]

3.52

Tensin de rotura (Fu):

[Ton/cm2]

4.36

Mdulo de elasticidad (E):

[Ton/cm2]

2038.89

Mdulo de corte del acero (G):

[Ton/cm2]

784.19

-------------------------------------------------------------------------------------------------------------------------------

CRITERIOS DE DISEO

Descripcin

Unidad

Eje mayor

Eje menor

-------------------------------------------------------------------------------------------------------------------------------------------------------------Longitud superior no arriostrada entre soportes laterales (LbTop)

[m]

0.60

Longitud inferior no arriostrada entre soportes laterales (LbBot)

[m]

0.60

Factor de longitud efectiva (K)

--

1.00

Factor de longitud efectiva para torsin

--

1.00

Longitud para tensin axial (L)

[m]

0.60

Longitud no arriostrada de compresin (Lx, Ly)

[m]

0.60

Longitud para pandeo torsional y lateral torsional

[m]

0.60

1.00

0.60

Hiptesis adicionales
Restriccin continua lateral torsional

No

Accin de campo de traccin

No

--------------------------------------------------------------------------------------------------------------------------------------------------------------

CONDICIONES DE SERVICIO

115

MEMORIA DE CLCULO ESTRUCTURAL

-------------------------------------------------------------------------------------------------------------------------------------------------------------Verificacin
Referencia

Unidad

Valor

EC ctrl

-------------------------------------------------------------------------------------------------------------------------------------------------------------Traccin
Maxima esbeltez geometrica (L/r)

--

12.45

(Sec. D)

--

12.45

(Ec. E6-

Compresin
Esbeltez geometrica crtica (KL/r)
1)

Compresin y flexin
Deflexin

[cm]

0.00

id6 en 0.00%

--------------------------------------------------------------------------------------------------------------------------------------------------------------

VERIFICACIONES DE DISEO

DISEO A FLEXIN (= 1.67)

Flexin en el eje mayor

Relacin

0.01

Capacidad

0.59 [Ton*m]

Ec. ctrl

: id6 en 100.00%

Demanda

0.00 [Ton*m]

Referencia

: (Sec. F)

-------------------------------------------------------------------------------------------------------------------------------------------------------------Resultados Intermedios
Referencia

Unidad

Valor

-------------------------------------------------------------------------------------------------------------------------------------------------------------Fluencia (Mp)

[Ton*m]

116

1.47

(Sec. F)

MEMORIA DE CLCULO ESTRUCTURAL

Pandeo lateral-torsional (LTB Mn)

--

N/A

(Sec. F)

Pandeo local del alma (WLB Mn)

--

N/A

(Sec. F)

Pandeo local (LB Mn)

--

N/A

(Sec. F)

Pandeo local del ala (FLB Mn)

[Ton*m]

0.99

(Sec. F)

Tensin de fluencia del ala (TFY Mn)

--

N/A

(Sec. F)

--------------------------------------------------------------------------------------------------------------------------------------------------------------

Flexin en el eje menor

Relacin

0.00

Capacidad

0.59 [Ton*m]

Ec. ctrl

: id6 en 0.00%

Demanda

0.00 [Ton*m]

Referencia

: (Sec. F)

-------------------------------------------------------------------------------------------------------------------------------------------------------------Resultados Intermedios
Referencia

Unidad

Valor

-------------------------------------------------------------------------------------------------------------------------------------------------------------Fluencia (Mp)

[Ton*m]

1.47

(Sec. F)

Pandeo local del ala (FLB Mn)

[Ton*m]

0.99

(Sec. F)

--------------------------------------------------------------------------------------------------------------------------------------------------------------

DISEO A CORTE (= 1.67)

Corte en eje mayor

Relacin

0.00

Capacidad

5.96 [Ton]

Ec. ctrl

: id6 en 0.00%

Demanda

0.00 [Ton]

Referencia

: (Sec. G)

Corte en eje menor

117

MEMORIA DE CLCULO ESTRUCTURAL

Relacin

0.00

Capacidad

5.96 [Ton]

Ec. ctrl

: id6 en 0.00%

Demanda

0.01 [Ton]

Referencia

: (Sec. G)

Ec. ctrl

: id0 en 0.00%

Referencia

: (Ec. D2-1)

DISEO A TRACCIN (= 1.67)

Traccin

Relacin

Capacidad

19.87 [Ton]

Demanda

0.00 [Ton]

0.00

DISEO A COMPRESIN (= 1.67)

Compresin

Relacin

Capacidad

13.64 [Ton]

Ec. ctrl

: id6 en 100.00%

Demanda

-0.50 [Ton]

Referencia

: (Sec. E)

0.04

DISEO A TORSIN (= 1.67)

Torsin

Relacin

0.00

Capacidad

0.00 [Ton*m]

Ec. ctrl

: id0 en 0.00%

Demanda

0.00 [Ton*m]

Referencia

: (Sec. H3)

INTERACCIN

118

MEMORIA DE CLCULO ESTRUCTURAL

Valor de interaccin combinada de flexin y axial


..............................................................................................................................................................
Relacin

0.00

Ec. ctrl

id0 en 0.00%

Referencia

: (Sec. H)

..............................................................................................................................................................

Valor de interaccin combinada de torsin, flexin, corte y/o axial


..............................................................................................................................................................
Relacin

0.04

Ec. ctrl

id6 en 100.00%

Referencia

: (Ec. H3-6)

..............................................................................................................................................................

RELACIN DE RESISTENCIA CRTICA

..............................................................................................................................................................
Relacin

0.04

Ec. ctrl

id6 en 100.00%

Referencia

: (Ec. H1-1a)

..............................................................................................................................................................

LUIOS HUMBERTO ORTIZ CABRERA


MP 52202-244719 NR

119