Вы находитесь на странице: 1из 1

G|----------------------------------------------------|

D|--3~--3-2~------------------------------------------|
A|-----------0~--5~---3-1~--3~---------5~------1~-----|
E|------------------------------1~---0-----3~----11~--|
G|----------------------------------------------------|
D|--3~--3-2~------------------------------------------|
A|-----------0~--5~---3-1~--3~---------5~------1~-----|
E|------------------------------1~---0-----3~----11~--|
Chorus:
G|--------------------------------------------------------------|
D|--------------------------------------------------------------|
A|---------5-3-1-0------3~------------------5-3-1-0-----3~------|
E|--5~--------------3~-------1~------5~-------------3~------1~--|
Verse:
G|----------------------------------------------------|
D|--3~--3-2~------------------------------------------|
A|-----------0~--5~---3-1~--3~---------5~------1~-----|
E|------------------------------1~---0-----3~----11~--|
Chorus:
G|--------------------------------------------------------------|
D|--------------------------------------------------------------|
A|---------5-3-1-0------3~-----------------5-3-1-0-----3~-------|
E|--5~--------------3~-------1~-----5~-------------3~------1~---|
Verse:
G|----------------------------------------------------|
D|--3~--3-2~------------------------------------------|
A|-----------0~--5~---3-1~--3~---------5~------1~-----|
E|------------------------------1~---0-----3~----11~--|

Оценить