Вы находитесь на странице: 1из 9

Virginia Moon

intro
e|----------------------------------------------------------------|
B|----------------------------------------------------------------|
G|----------5-------------5------------5----------5---------------| 2x
D|----------6-------------6------------6----------6---------------|
A|-----4-----------4--4---------4--4----------4-------------------|
E|----------------------------------------------------------------|

verse 1 "dearest constellation"


e|--------------------------------------------------------------------------|
B|--------------------------------------------------------------------------|
G|----------5-------------5-------------5---------5-------------------------|
D|----------6-------------6-------------6---------6-------------------------|
A|-----4-----------4--4---------4--4----------4-----------------------------|
E|--------------------------------------------------------------------------|

e|--------------------------------------------------------------------------|
B|--------------------------------------------------------------------------|
G|----------5-------------5-------------5---------5-------------------------|
D|----------5-------------5-------------5---------5-------------------------|
A|-----7-----------7--7---------7--7----------7-----------------------------|
E|--------------------------------------------------------------------------|

"heaven surroundin' you"


e|--------------------------------------------------------------------------|
B|--------------------------------------------------------------------------|
G|---------5--------------5-------------5---------5-------------------------|
D|---------4--------------4-------------4---------4-------------------------|
A|-----6-----------6--6---------6--6----------6-----------------------------|
E|--------------------------------------------------------------------------|

e|--------------------------------------------------------------------------|
B|----------------------------------------6---------------------------------|
G|---------3--------------3----------5p3-------3----------------------------|
D|---------3--------------3-----------------------3--0----------------------|
A|-----5------------5--5---------5------------------------------------------|
E|--------------------------------------------------------------------------|

"stay there, soft and blue"


e|--------------------------------------------------------------------------|
B|--------------------------------------------------------------------------|
G|---------3---------------3----4---3--------4---3--------------------------|
D|---------2---------------2----2---2--------2---2--------------------------|
A|-----4------------4--4-----------------4----------------------------------|
E|--------------------------------------------------------------------------|

e|--------------------------------------------------------------------------|
B|--------------------------------------------------------------------------|
G|---------3---------------3-------------3----------------------------------|
D|---------4---------------4-------------4----------------------------------|
A|--------------------------------------------------------------------------|
E|-----2------------2--2-------------2--------------------------------------|

"Virginia Moon, I'll wait for you tonight"


e|--------------------------------------------------------------------------|
B|--------------------------------------------------------------------------|
G|---------3---------------3-------------3---------3------------------------|
D|---------4---------------4-------------4---------4------------------------|
A|-----2------------2--2----------2--2---------2----------------------------|
E|--------------------------------------------------------------------------|

e|--------------------------------------------------------------------------|
B|--------------------------------------------------------------------------|
G|---------3---------------3-------------3---------3------------------------|
D|---------4---------------4-------------4---------4------------------------|
A|--------------------------------------------------------------------------|
E|-----2------------2--2----------2--2---------2----------------------------|

Verse 2 "sweetest Invitation"


e|--------------------------------------------------------------------------|
B|--------------------------------------------------------------------------|
G|----------5-------------5-------------5---------5-------------------------|
D|----------6-------------6-------------6---------6-------------------------|
A|-----4-----------4--4---------4--4----------4-----------------------------|
E|--------------------------------------------------------------------------|

e|--------------------------------------------------------------------------|
B|--------------------------------------------------------------------------|
G|----------5-------------5-------------5---------5-------------------------|
D|----------5-------------5-------------5---------5-------------------------|
A|-----7-----------7--7---------7--7----------7-----------------------------|
E|--------------------------------------------------------------------------|

"breaking the day in two"


e|--------------------------------------------------------------------------|
B|--------------------------------------------------------------------------|
G|---------5--------------5-------------5---------5-------------------------|
D|---------4--------------4-------------4---------4-------------------------|
A|-----6-----------6--6---------6--6----------6-----------------------------|
E|--------------------------------------------------------------------------|

e|--------------------------------------------------------------------------|
B|----------------------------------------6---------------------------------|
G|---------3--------------3----------5p3-------3----------------------------|
D|---------3--------------3-----------------------3--0----------------------|
A|-----5------------5--5---------5------------------------------------------|
E|--------------------------------------------------------------------------|

"feelin' like I do"


e|--------------------------------------------------------------------------|
B|--------------------------------------------------------------------------|
G|---------3---------------3----4---3--------4---3--------------------------|
D|---------2---------------2----2---2--------2---2--------------------------|
A|-----4------------4--4-----------------4----------------------------------|
E|--------------------------------------------------------------------------|

e|--------------------------------------------------------------------------|
B|--------------------------------------------------------------------------|
G|---------3---------------3-------------3----------------------------------|
D|---------4---------------4-------------4----------------------------------|
A|--------------------------------------------------------------------------|
E|-----2------------2--2-------------2--------------------------------------|

"Virginia Moon, I'll wait for you tonight"


e|--------------------------------------------------------------------------|
B|--------------------------------------------------------------------------|
G|---------3---------------3-------------3---------3------------------------|
D|---------4---------------4-------------4---------4------------------------|
A|-----2------------2--2----------2--2---------2----------------------------|
E|--------------------------------------------------------------------------|

e|--------------------------------------------------------------------------|
B|--------------------------------------------------------------------------|
G|---------3---------------3-------------3---------3------------------------|
D|---------4---------------4-------------4---------4------------------------|
A|--------------------------------------------------------------------------|
E|-----2------------2--2----------2--2---------2----------------------------|

"And now, Shades become..."


e|--------------------------------------------------------------------------|
B|--------------------------------------------------------------------------|
G|---------3---------------3-------------3---------3------------------------|
D|---------4---------------4-------------4---------4------------------------|
A|-----2------------2--2----------2--2---------2----------------------------|
E|--------------------------------------------------------------------------|

e|--------------------------------------------------------------------------|
B|--------------------------------------------------------------------------|
G|---------3---------------3-------------3---------3------------------------|
D|---------4---------------4-------------4---------4------------------------|
A|--------------------------------------------------------------------------|
E|-----2------------2--2----------2--2---------2----------------------------|
Chorus 1
"In the morning..."
e|--------------------------------------------------------------------------|
B|--------------------------------------------------------------------------|
G|--------------------------------------------------------------------------|
D|-----2-------------2-----4-------------4----------------------------------|
A|---------2--------------------2------------2------------------------------|
E|--------------4-------------------4-------------4-------------------------|

"In tomorrow..."
e|--------------------------------------------------------------------------|
B|--------------------------------------------------------------------------|
G|----------4--------4----------4--------4----------------------------------|
D|----------4--------4----------4--------4----------------------------------|
A|------2--------2----------6--------6--------------------------------------|
E|--------------------------------------------------------------------------|

Pause for chorus


"I will say..."
e|--------------------------------------------------------------------------|
B|--------------------------------------------------------------------------|
G|-------4--4--4--4-------3-------------------------------------------------|
D|-------5--5--5--5-------4-------------------------------------------------|
A|-------5--5--5--5-------2-------------------------------------------------|
E|--------------------------------------------------------------------------|

e|--------------------------------------------------------------------------|
B|--------------------------------------------------------------------------|
G|---------3---------------3-------------3---------3------------------------|
D|---------4---------------4-------------4---------4------------------------|
A|-----2------------2--2----------2--2---------2----------------------------|
E|--------------------------------------------------------------------------|
verse 3"secret facination"
e|--------------------------------------------------------------------------|
B|--------------------------------------------------------------------------|
G|----------5-------------5-------------5---------5-------------------------|
D|----------6-------------6-------------6---------6-------------------------|
A|-----4-----------4--4---------4--4----------4-----------------------------|
E|--------------------------------------------------------------------------|

e|--------------------------------------------------------------------------|
B|--------------------------------------------------------------------------|
G|----------5-------------5-------------5---------5-------------------------|
D|----------5-------------5-------------5---------5-------------------------|
A|-----7-----------7--7---------7--7----------7-----------------------------|
E|--------------------------------------------------------------------------|

"whisper a quite tune"


e|--------------------------------------------------------------------------|
B|--------------------------------------------------------------------------|
G|---------5--------------5-------------5---------5-------------------------|
D|---------4--------------4-------------4---------4-------------------------|
A|-----6-----------6--6---------6--6----------6-----------------------------|
E|--------------------------------------------------------------------------|

e|--------------------------------------------------------------------------|
B|----------------------------------------6---------------------------------|
G|---------3--------------3----------5p3-------3----------------------------|
D|---------3--------------3-----------------------3--0----------------------|
A|-----5------------5--5---------5------------------------------------------|
E|--------------------------------------------------------------------------|

"Hear me callin' you"


e|--------------------------------------------------------------------------|
B|--------------------------------------------------------------------------|
G|---------3---------------3----4---3--------4---3--------------------------|
D|---------2---------------2----2---2--------2---2--------------------------|
A|-----4------------4--4-----------------4----------------------------------|
E|--------------------------------------------------------------------------|

e|--------------------------------------------------------------------------|
B|--------------------------------------------------------------------------|
G|---------3---------------3-------------3---------3------------------------|
D|---------4---------------4-------------4---------4------------------------|
A|--------------------------------------------------------------------------|
E|-----2------------2--2----------2--2---------2----------------------------|

"Virginia Moon, I'll wait for you tonight"


e|--------------------------------------------------------------------------|
B|--------------------------------------------------------------------------|
G|---------3---------------3-------------3---------3------------------------|
D|---------4---------------4-------------4---------4------------------------|
A|-----2------------2--2----------2--2---------2----------------------------|
E|--------------------------------------------------------------------------|

e|--------------------------------------------------------------------------|
B|--------------------------------------------------------------------------|
G|---------3---------------3-------------3---------3------------------------|
D|---------4---------------4-------------4---------4------------------------|
A|--------------------------------------------------------------------------|
E|-----2------------2--2----------2--2---------2----------------------------|

"And now, Shades become..."


e|--------------------------------------------------------------------------|
B|--------------------------------------------------------------------------|
G|---------3---------------3-------------3---------3------------------------|
D|---------4---------------4-------------4---------4------------------------|
A|-----2------------2--2----------2--2---------2----------------------------|
E|--------------------------------------------------------------------------|

e|--------------------------------------------------------------------------|
B|--------------------------------------------------------------------------|
G|---------3---------------3-------------3---------3------------------------|
D|---------4---------------4-------------4---------4------------------------|
A|--------------------------------------------------------------------------|
E|-----2------------2--2----------2--2---------2----------------------------|
Chorus 2
"In the morning..."
e|--------------------------------------------------------------------------|
B|--------------------------------------------------------------------------|
G|--------------------------------------------------------------------------|
D|-----2-------------2-----4-------------4----------------------------------|
A|---------2--------------------2------------2------------------------------|
E|--------------4-------------------4-------------4-------------------------|

"In tomorrow..."
e|--------------------------------------------------------------------------|
B|--------------------------------------------------------------------------|
G|----------4--------4----------4--------4----------------------------------|
D|----------4--------4----------4--------4----------------------------------|
A|------2--------2----------6--------6--------------------------------------|
E|--------------------------------------------------------------------------|

Pause for chorus


"I will say..."
e|--------------------------------------------------------------------------|
B|--------------------------------------------------------------------------|
G|-------4--4--4--4-------3-------------------------------------------------|
D|-------5--5--5--5-------4-------------------------------------------------|
A|-------5--5--5--5-------2-------------------------------------------------|
E|--------------------------------------------------------------------------|

e|--------------------------------------------------------------------------|
B|--------------------------------------------------------------------------|
G|---------3---------------3-------------3---------3------------------------|
D|---------4---------------4-------------4---------4------------------------|
A|-----2------------2--2----------2--2---------2----------------------------|
E|--------------------------------------------------------------------------|

Play verse under solo

Solo:
e|---------------------------------------------8--9--11--9--8--6--4--7h6----|
B|--------------------------------------------------------------------------|
G|-------------5---5--1--3--3/5---5b6r5--5h6--------------------------------|
D|-------3--6---------------------------------------------------------------|
A|----4---------------------------------------------------------------------|
E|--------------------------------------------------------------------------|

e|---------------------------------------------------------------------------|
B|-----4/6---11--9--11--9--11b12r11--9--11b12r11-----------------------------|
G|---------------------------------------------------------------------------|
D|---------------------------------------------------------------------------|
A|---------------------------------------------------------------------------|
E|---------------------------------------------------------------------------|

e|-----------------------2--2--2---------------------------------------------|
B|--------------------2------------------------------------------------------|
G|-----------------3---------------------------------------------------------|
D|--------------3------------------------------------------------------------|
A|--------1--4---------------------------------------------------------------|
E|-----2---------------------------------------------------------------------|

"Virginia Moon, I'll wait for you tonight"


e|--------------------------------------------------------------------------|
B|--------------------------------------------------------------------------|
G|---------3---------------3-------------3---------3------------------------|
D|---------4---------------4-------------4---------4------------------------|
A|-----2------------2--2----------2--2---------2----------------------------|
E|--------------------------------------------------------------------------|

e|--------------------------------------------------------------------------|
B|--------------------------------------------------------------------------|
G|---------3---------------3-------------3---------3------------------------|
D|---------4---------------4-------------4---------4------------------------|
A|--------------------------------------------------------------------------|
E|-----2------------2--2----------2--2---------2----------------------------|

"And now, Shades become..."


e|--------------------------------------------------------------------------|
B|--------------------------------------------------------------------------|
G|---------3---------------3-------------3---------3------------------------|
D|---------4---------------4-------------4---------4------------------------|
A|-----2------------2--2----------2--2---------2----------------------------|
E|--------------------------------------------------------------------------|

e|--------------------------------------------------------------------------|
B|--------------------------------------------------------------------------|
G|---------3---------------3-------------3---------3------------------------|
D|---------4---------------4-------------4---------4------------------------|
A|--------------------------------------------------------------------------|
E|-----2------------2--2----------2--2---------2----------------------------|
Chorus 3
"In the morning..."
e|--------------------------------------------------------------------------|
B|--------------------------------------------------------------------------|
G|--------------------------------------------------------------------------|
D|-----2-------------2-----4-------------4----------------------------------|
A|---------2--------------------2------------2------------------------------|
E|--------------4-------------------4-------------4-------------------------|

"In tomorrow..."
e|--------------------------------------------------------------------------|
B|--------------------------------------------------------------------------|
G|----------4--------4----------4--------4----------------------------------|
D|----------4--------4----------4--------4----------------------------------|
A|------2--------2----------6--------6--------------------------------------|
E|--------------------------------------------------------------------------|

Pause for chorus


"I will say..."
e|--------------------------------------------------------------------------|
B|--------------------------------------------------------------------------|
G|-------4--4--4--4-------3-------------------------------------------------|
D|-------5--5--5--5-------4-------------------------------------------------|
A|-------5--5--5--5-------2-------------------------------------------------|
E|--------------------------------------------------------------------------|

e|--------------------------------------------------------------------------|
B|--------------------------------------------------------------------------|
G|----------3----------3-----------4-------4--------------------------------|
D|----------4----------4-----------4-------4--------------------------------|
A|------2-------2--2-----------6-------6------------------------------------|
E|--------------------------------------------------------------------------|

"I will say..."


e|--------------------------------------------------------------------------|
B|--------------------------------------------------------------------------|
G|-------4--4--4--4-------3-------------------------------------------------|
D|-------5--5--5--5-------4-------------------------------------------------|
A|-------5--5--5--5-------2-------------------------------------------------|
E|--------------------------------------------------------------------------|

e|--------------------------------------------------------------------------|
B|--------------------------------------------------------------------------|
G|----------3----------3-----------4-------4--------------------------------|
D|----------4----------4-----------4-------4--------------------------------|
A|------2-------2--2-----------6-------6------------------------------------|
E|--------------------------------------------------------------------------|

"I will say..."


e|--------------------------------------------------------------------------|
B|--------------------------------------------------------------------------|
G|-------4--4--4--4-------3-------------------------------------------------|
D|-------5--5--5--5-------4-------------------------------------------------|
A|-------5--5--5--5-------2-------------------------------------------------|
E|--------------------------------------------------------------------------|
e|--------------------------------------------------------------------------|
B|--------------------------------------------------------------------------|
G|----------3----------3-----------4-------4--------------------------------|
D|----------4----------4-----------4-------4--------------------------------|
A|------2-------2--2-----------6-------6------------------------------------|
E|--------------------------------------------------------------------------|

e|--------------------------------------------------------------|
B|--------------------------------------------------------------|
G|---------3---------------3-------------3---------3------------| x3
D|---------4---------------4-------------4---------4------------|
A|-----2------------2--2----------2--2---------2----------------|
E|--------------------------------------------------------------|

Finish with:
e|---------------------------------2----|
B|---------------------------------2----|
G|---------3---------------3-------3----|
D|---------4---------------4-------4----|
A|-----2------------2--2-----------2----|
E|---------------------------------2----|