Вы находитесь на странице: 1из 6

LOVE OF A LIFETIME

By firehouse
Tabbed by : bighabit69@iamwasted.com

Chords used

G5 B5 C5
A5
3 x 0 0 3 3 x 2 4 4 x x x 3 5 5 x x x
0 2 2 x x

D5
x 5 7 7 x x

Intro

Gtr I
|---------3---------------0-------|-------3-------------0--------|
|-------3---3-----------3---3-----|---------5---------3---3------|
|-----0-------0-------2-------2---|-----4-----4-----2-------2----|
|---0-----------0---0-----------0-|---2---------2-0-----------0--|
|---------------------------------|------------------------------|
|-3---------------2---------------|-0----------------------------|

|-------0-------------2-------|-------0-----------0-----2-----3-----2-
(2)-----|
|---------1-------------3-----|---------1-----------3-----3-----
3---------3---|
|-----0-----0-------2-----2---|-----0-----0-----2-----2-----2-----
2---------2-|
|---2---------2---4---------4-|---2---------2-
0-------------------------------|
|-0-------------2-------------|-
3---------------------------------------------|
|-----------------------------|----------------------------------------
-------|

Verse

||----------3---------------0-------|-------3-------------0-------|
||o-------3---3-----------3---3-----|---------5---------3---3-----|
||------0-------0-------2-------2---|-----4-----4-----2-------2---|
||----0-----------0---0-----------0-|---2---------2-0-----------0-|
||o---------------------------------|-----------------------------|
||--3---------------2---------------|-0---------------------------|

|-------0-------------2-------|
|---------1-------------3-----|
|-----0-----0-------2-----2---|
|---2---------2---4---------4-|
|-0-------------2-------------|
|-----------------------------||-------0-----------0-----2-----3-----2-
(2)------||
|---------1-----------3-----3-----3---------3---o||
|-----0-----0-----2-----2-----2-----2---------2--||
|---2---------2-0--------------------------------||
|-3---------------------------------------------o||
|------------------------------------------------||

Bridge

Gtr II
|-0----^2--0-------|-0----^2--5-------|-0----2--0-------|
|-1----^3----3-----|-1----^3----3-----|-1----3----3-----|
|-0----^2------2---|-0----^2------2---|-0----2------2---|
|-2----^4--------4-|-2----^4--------4-|-2----4--------4-|
|-0----^2----------|-0----^2----------|-0----2----------|
|------------------|------------------|-----------------|

Chorus

Gtr III
|-0----2----------||-3---------|-----------|
|-1----3----------||-3----3----|-----------|
|-0----2----x\----||-0----4----|-5----7----|
|-2----0----x\----||-0----4----|-5----7----|
|-3---------------||------2----|-3----5----|
|-----------------||-3---------|-----------|

|-3---------|-----------|-3---------|-----------|
|-3----3----|-----------|-3----3----|-----------|
|-0----4----|-5----7----|-0----4----|-5----7----|
|-0----4----|-5----7----|-0----4----|-5----7----|
|------2----|-3----5----|------2----|-3----5----|
|-3---------|-----------|-3---------|-----------|

|------------|-------------|
|------------|-------------|
|-2----/4----|-/5----/7----|
|-2----/4----|-/5----/7----|
|-0----/2----|-/3----/5----|
|------------|-------------|
|
| Gtr IV
|------------|-------------|
|------------|-------------|
|------------|-------------|
|------------|-------------|
|------------|-------------|
|------------|-------------|
|---3------------------------|-----------------------|
|---3------------3-----------|-----------------------|
|---0------------4-----------|-5-----------7---------|
|---0------------4-----------|-5-----------7---------|
|----------------2-----------|-3-----------5---------|
|---3------------------------|-----------------------|
|
| \1/ \1/ \1/ \1/
| ~~~ ~~ ~ ~~~~~~~~
|----------------------------|-----------------------|
|----------------------------|-----------------------|
|-/12---14---12-11---12---11-|-9---11---9-----14-----|
|----------------------------|------------12---------|
|----------------------------|-----------------------|
|----------------------------|-----------------------|

2nd Verse
G5
Gtr IV
|
/

Gtr I
|----------3---------------0-------|-------3-------------0-------|
|--------3---3-----------3---3-----|---------5---------3---3-----|
|------0-------0-------2-------2---|-----4-----4-----2-------2---|
|----0-----------0---0-----------0-|---2---------2-0-----------0-|
|----------------------------------|-----------------------------|
|--3---------------2---------------|-0---------------------------|
|
| Gtr III
|----------------------------------|-----------------------------|
|----------------------------------|-----------------------------|
|-12-------------------------------|-----------------------------|
|----------------------------------|-----------------------------|
|----------------------------------|-----------------------------|
|----------------------------------|-----------------------------|

|-------0-------------2-------|-------0-----------0-----2-----|
|---------1-------------3-----|---------1-----------3-----3---|
|-----0-----0-------2-----2---|-----0-----0-----2-----2-----2-|
|---2---------2---4---------4-|---2---------2-0---------------|
|-0-------------2-------------|-3-----------------------------|
|-----------------------------|-------------------------------|

|---------3---------------0-------|-------3-------------0-------|
|-------3---3-----------3---3-----|---------5---------3---3-----|
|-----0-------0-------2-------2---|-----4-----4-----2-------2---|
|---0-----------0---0-----------0-|---2---------2-0-----------0-|
|---------------------------------|-----------------------------|
|-3---------------2---------------|-0---------------------------|
|-------0-------------2-------|-------0-----------0-----2-----3-----2-
(2)-----||
|---------1-------------3-----|---------1-----------3-----3-----
3---------3---||
|-----0-----0-------2-----2---|-----0-----0-----2-----2-----2-----
2---------2-||
|---2---------2---4---------4-|---2---------2-
0-------------------------------||
|-0-------------2-------------|-
3---------------------------------------------||
|-----------------------------|----------------------------------------
-------||

Guitar Solo

C5 B5

Gtr IV
| |
/ /

Gtr III
|----------------------------------------------------------------------
----------|
|----------------------------------------------------------------------
----------|
|-----12-14b16==(14)r(14)b16==(14)r(14)p12----12-
14b16==(14)r(14)p12----12-12----|
|-/14--------------------------------------14------------------------
14-------14-|
|----------------------------------------------------------------------
----------|
|----------------------------------------------------------------------
----------|

A5 D5
| | | |
/ / / /

T T T T T T T T
T T T T T
|----------------------------------------------------------------------
---------------------------------|
|-----15-17b19==(17)-20p17r(17)-
19p15h19p15h19p15h19p15h19p15h19p15h19p15h19p15h19p15h19p15h19p15h19p15
-|
|-
/16--------------------------------------------------------------------
-------------------------------|
|----------------------------------------------------------------------
---------------------------------|
|----------------------------------------------------------------------
---------------------------------|
|----------------------------------------------------------------------
---------------------------------| | ||||| | |||| | |
| | | | | | |
/ ///// / //// / / / / /
/ / / /

T T T T T T T T T T
T T T T T
|-------------22tr17-----
22p17h22p17h24p17h24p17h24p17h24p17h25p17h26p17h27p17h28p17h29p17h29p17
h29/--||
|-
22tr19-----------------------------------------------------------------
-----------------------------||
|----------------------------------------------------------------------
-------------------------------||
|----------------------------------------------------------------------
-------------------------------||
|----------------------------------------------------------------------
-------------------------------||
|----------------------------------------------------------------------
-------------------------------||

Chorus (Outro)

|-----------|-----------|-----------|------------|
|-----------|-----------|-----------|------------|
|------6----|-7---------|------6----|-7----------|
|-7----6----|-7---------|-7----6----|-7----------|
|-7----4----|-5----7----|-7----4----|-5----------|
|-5---------|------4----|-5---------|------4-5-7-|

|-----------|-----------|-----------|-----------|
|-----------|-----------|-----------|-----------|
|------6----|-7----9----|-4----6----|-7----9----|
|-7----6----|-7----9----|-4----6----|-7----9----|
|-7----4----|-5----7----|-2----4----|-5----7----|
|-5---------|-----------|-----------|-----------|

|-----------|-----------|-----------|-----------|
|-----------|-----------|-----------|-----------|
|------6----|-7----9----|------6----|-7----9----|
|-7----6----|-7----9----|-7----6----|-7----9----|
|-7----4----|-5----7----|-7----4----|-5----7----|
|-5---------|-----------|-5---------|-----------|

|-----------|-----------|-----------|-----------|--------|
|-----------|-----------|-----------|-----------|--------|
|------6----|-7----9----|-4----6----|-7----9----|-(9)----|
|-7----6----|-7----9----|-4----6----|-7----9----|-(9)----|
|-7----4----|-5----7----|-2----4----|-5----7----|-(7)----|
|-5---------|-----------|-----------|-----------|--------|
Gtr I
|---------0--------------4-------|-------0---------------0-------|-
^0----*|
|-------2---2--------------5-----|-----3---3---------------0-----|-
^2----*|
|-----2-------2--------4-----4---|---2-------2---------1-----1---|-
^2----*|
|---2-----------2----6---------6-|-0-----------0-----2---------2-|-
^2----*|
|-0---------------/4-------------|-----------------2-------------|-
^0----*|
|--------------------------------|---------------
0---------------|-------*|
===========