Вы находитесь на странице: 1из 27

.

DDt-prosvistela

DDT-leteli oblaka

Bi-2 ee glaza

V teomnuiyu nochy
Am
F
C

Am
F
C

:

,
- -

-
*

Obichnii ovtobus
Em
Am

G
D
Em
-, .
Em
Am
,
G
D
Em
, .
- , ,
, , c
- , ,
, , .
, ,
, ,
, ,
, , :
"


, , ?
,
, ,
, ".

, ,
A , , ,
, :
" , , ".
, ,
, ,
, ,
, - ""
, , ,
, ,
A , ,
, , .
,
-, .
, ,
, .

Halleluiah
C
Am
I heard there was a secret chord
C
Am
That David played and it pleased the lord
F
G
C
G
But you don\'t really care for music, do you
C
F
G
Well it goes like this: the fourth, the fifth
Am
F
The minor fall, the major lift
G
Em
Am
The baffled king composing hallelujah
:
F
Hallelujah
Am
Hallelujah
F
Hallelujah
C G C G
Hallelujah
Well your faith was strong but you needed proof
You saw her bathing on the roof
Her beauty and the moonlight overthrew you
She tied you to her kitchen chair
She broke your throne and she cut your hair
And from your lips she drew the hallelujah

Baby i\'ve been here before


I\'ve seen this room and I\'ve walked this floor
I used to live alone before I knew you
I\'ve seen your flag on the marble arch
But love is not a victory march
It\'s a cold and it\'s a broken hallelujah

Well there was a time when you let me know


What\'s really going on below
But now you never show that to me do you
Remember when I moved in you
The holy dove was moving too
And every breath we drew was hallelujah

Maybe there\'s a god above


But all i\'ve ever learned from love
Was how to shoot somebody who outdrew you
It\'s not a cry you can hear at night
It\'s not somebody who\'s seen the light
It\'s a cold and it\'s a broken hallelujah
:

-3-2-1-2-3

Bi-2 inomarki
E
C#m
, A
H
E
, , .
E
C#m
, ,
A
H
E
.
E
C#m
, ,
A
H
E
.
E
C#m
,
A
H
E
, .
.
, , .
,
.

A+7

G#m
C#m

.

A+7 H
...
( - F#)

Serebro bi-2
1 :
Am
F
" " Dm
Em
Am
-,
F Dm
Em
Am

F
Dm Em
.
Am
F

Dm
Em
Am
,
F
Dm
Em
Am
F Dm Em
.

:
Dm
Em
Am

F
Dm Em
.
1:
e--7-12-7-8--8-12-5---13-13-13-12-10-8-7-8--8-12-5e--13-13-13-12-0-10-7-8--8-12-5---13-13-13-12-10-8-7-8--8-12-5e--13-13-13-12
: e--0-10-7-Am

(.. - 0, - 10, - 7, -Am)

2 :
Am F

Dm
Em
Am
F
,
Dm
Em
Am
"" F
Dm Em
.
Am F

Dm
Em
Am
,
F
Dm
Em
Am

F Dm Em

.
2:
e--5-7-8-7-5^7^5----------------------h----------------6-----5-6-8-6-5^6^5--g------------------------------------7e--10--12-----15-13--12^13^12--10---h-------------------------------------g-------------------------------------e--5~10-10---12---3~5-5--7-----8-8-8-h-------------------------------------g---------------------0---------------e--15-13--12^13^12--10-----------------h--------------------------------------g--------------------------------------e--10~19-19-19-19-19-19-17---8~12-12-12-13-12-10h-----------------------------------------------g------------------------------------------------

e--5~10-10-10--12--3~5-5-5--7h----------------------------g----------------------------3 :
Am
F

Dm
Em
Am
F
,
Dm
Em
Am
F
,
Dm
Em
Am
F Dm Em
.
.
:
e--7-12-7-8--8-12-5---13-13-13-12-10-8-7-8--8-12-5e--13-13-13-12-0-10-7-8--8-12-5---13-13-13-12-10-8-7-8--8-12-5e--13-13-13-12-0-10-7-8--8-12-5---13-13-13-12-10-8-7-8--8-12-5e--13-13-13-12-0-10-7-8--8-12-5---13-13-13-12-10-8-7-8--8-12-5( )
Am
F
Dm
E
--0---|------0-|--------|--1-1-1-|0-------|
----3-|1---1---|--------|----3---|--3-1-0-|
2-----|--2-----|2-------|----2---|--------|
------|--2-----|--3-2-3-|0-------|2-------|
------|0-------|--------|--------|--------|
------|--------|1-------|--------|--------|

//
//
//
//
//
//

F()
|--------|
|--------|
|3-------|
|--4-2-4-|
|--------|
|1-------|

//
//
//
//
//
//

F()
|--------|
|2-------|
|--3-----|
|----4-3-|
|--------|
|1-------|

Am
F
Dm
E
|------0-|--------|--1-1-1-|0-------|
|1---1---|--------|----3---|--3-1-0-|
|--2-----|2-------|----2---|--------|
|--2-----|--3-2-3-|0-------|2-------|
|0-------|--------|--------|--------|
|--------|1-------|--------|--------|
Am
F
Dm
E
|--------|--------|--1-1-1-|0-------|
|1-1-1-1-|1-------|----3---|--0-3-1-|
|----2---|--2-----|----2---|--0-----|
|----2---|----3-2-|0-------|2-------|
|0-------|--------|--------|--------|
|--------|1-------|--------|--------|

Am
F
Dm
E
Am
F
. .
|--0-----|--------|--1-1-1-|--------|--0-0-0-|--------|--1|----1-1-|--1-1-1-|--3-3-3-|--------|--1-1-1-|--1-1-1-|--3|----2-2-|--2-2-2-|--2-2-2-|--------|--2-2-2-|--2-2-2-|--2|--------|--3-3-3-|0-------|--------|--------|--3-3-3-|0--|0-------|--------|--------|--------|0-------|--------|---|--------|1-------|--------|0-------|--------|1-------|---

Rapa Roza vinturilor


Bataia : clasica (jjs sjs)
Intro: Em Em
Em
D
Em
1 La marginea pantei abrupte
C
D
Em
La un han s-a oprit un strain
C
D
G
Em
Era trist si avea hainele rupte, ooo
C
D
Em
si pe masa o cana cu vin.
2

Om nebun ce-nconjoara azi pamntul


Stai la mine, rami doar un ceas
Sa te ntorci napoi nu mai ai unde
nainte sa mergi ti-a mai ramas.

3 Mi-amintesc de o vara fierbinte


De-o padure cu muguri pe ram
Mi-amintesc de prieteni si de iubita, ooo
si de-o casa cu mama la geam.
4 si-am ajuns la un han pe o stnca
Sa-mi nec tot amarul nu pot
si ma-ntreb daca rapa e adnca, ooo
Sa ma-nec azi cu jale cu tot.

Moi rock-n roll bi-2


F
G
Am
G
, , .
F7
G
Am
G
Rock\'n\'Roll - ,
, ,
- , .
:
F
G
,
Am
, ,
F
G
Am
G
.

,

- -


,

Zdob si Zdub - Draga otee

Versiune de
imprimat:

Contributie: rasgeado
Rating:
Au votat:

25 persoane

Afisare acorduri:

chitara
pian

Midi:

GuitarPro:

muz. Iurie Sadovnic


versuri Grigore Vieru
Originalul e in C#m, deci capodastru pe 4, sau transpuneti acordurile
Intro:
Am
F C
F C
F C
F C

E
E
E
E

Am
Am
Am
Am

solo de intro:
E||----------------------------------------------|
B||----------------------------------------------|
G||----------------------------------------------|
D||--12-10----12-10----10-------10---------------|
A||--------13-------13----13-12----13-12-10------|
E||------------------------------------------13--|
-----------------------------------------------|
-----------------------------------------------|
-----------------------------------------------|
-----------------------12-10----12-10----10----|
----------------10-12--------13-------13----13-|
--12--10s-12-13--------------------------------|
------------------------------------||
------------------------------------||
------------------------------------||
-----10-----------------------------||
--12----13-12-10--------------------||
------------------13--12--10--10----||
Am
F
G
C
Drag o teie, dulce mireasm
Dm
Am
E
Am
La gur femeie, la mijloc mireas
Am
F
G
C
Drag o teie, dulce mireasm

Dm
Am
E
Am
La gur femeie, la mijloc mireas
E
Am
Curge izvorul, grul rasare
G
C
E
Acolo pe unde trec urmele tale
Am
F
G
C
Vlur dorul des ca o iarb
Dm
Am
E
Am
Parc rspunde, parc intreab
Am
F
G
C
Vlur dorul des ca o iarb
Dm
Am
E
Am
Parc rspunde, parc intreab
intro repeat
Drag o
La gur
Drag o
La gur

teie, dulce mireasm


femeie, la mijloc mireas
teie, dulce mireasm
femeie, la mijloc mireas

Curge izvorul, grul rasare


Acolo pe unde trec urmele tale
Vlur dorul des ca o iarb
Parc rspunde, parc intreab
Vlur dorul des ca o iarb
Parc rspunde, parc intreab

Boris grebensicov gorod zolotoy


e||-----|------------------------------------|--0---------------------------0----|
B||-----|--1---0---------------0---1---------|--1---3---1---0---1---1---3------2-|
G||-----|--2-------2---1---2-----------2-----|--2---------------2----------------|
D||---2-|--2-------------------------------2-|----------2------------------------|
A||-----|--0---------------0-----------------|--0---------------0----------------|
E||-----|----------0-------------------------|-----------------------------------|
/----------------- ,
e||--1---0-----------------------1-|--0-----------------------------|
,
B||--3-------3---1---0---1---3-----|--0---3---1---3---0-------------|
G||--2-----------------------------|--1-----------------------------|
D||--0-----------------------------|------------------------------2-|
A||--------------------------2-----|--------------------------------|
E||--------------------------------|--0---------------0---4---0-----|
e||------------------------------------|--0---------------------------0-----|
B||--1---0---------------0---1---------|--1---3---1---0---1---1---3-------2-|
G||--2-------2---1---2-----------2-----|--2---------------2-----------------|
D||--2-------------------------------2-|----------2-------------------------|
A||--0---------------0-----------------|--0---------------0-----------------|
E||----------0-------------------------|------------------------------------|
e||--1---0-----------------------1-|--0---------------------------3-|
B||--3-------3---1---0---1---3-----|--0---3---1---0-----------------|
G||--2-----------------------------|--1---------------2-------------|
D||--0-----------------------------|--------------------------------|
A||--------------------------2-----|------------------0---3---0-----|
E||--------------------------------|--0-----------------------------|

e||--3-----------3---3---1---0---1---5---1-|--1-----------1---1---0-------0---3-|
B||--2-------2-------3---------------------|--0-------0---------------4---------|
G||--0---2-----------2---------------------|--0---0-----------------------------|
D||------------------0---------------------|------------------------------------|
A||--0-------------------------------------|------------------3-----------------|
E||----------------------------------------|--3---------------------------------|
e||-------------------10---8---7-----------------------|-------------------10--8---7--------------------||
B||--------------------------------10---10-------9-----|-------------------------------10---10---9---10-||
G||------7---9---10--------------------------7-------7-|------7---9---10-------------------------7---7--||
D||--0---------------------------------------9-------9-|--0--------------------------------------9---10-||
A||----------------------------------------------------|---------------------------------------------0--||
E||-------------------------------------0--------------|------------------------------------0-----------||

Kino pechaly
Hm
A
.
G
F#m
, .
Hm
A
, ,
G
F#m
.
A
D
, ,
A
D
.
A
Hm
A D
?
, , ,
, , .
?

- ,
- .
: "!" ,
.
, ,
.
?
, , ,
, , .
?

Kino poslednii geroy


-==1|--0--0--0--------3-------2-------0---|-2-3-2-3-2-3-2-3-22|--0--0--0-------0-------0-------0----|-3-3-3-3-3-3-3-3-3-

3|--0--0--0------0-------0-------0-----|-2-2-2-2-2-2-2-2-24|--2--2--2-----2-------2-------2------|-0-0-0-0-0-0-0-0-05|--2--2--2----2-------2-------2-------|-0-0-0-0-0-0-0-0-06|--0--0--0---0-------0-------0--------|-0-0-0-0-0-0-0-0-0-= =( .)
1|----------2----------2--3-5----(7)--2|----------3----------3--4-6----(8)--3|----------4----------4--5-7----(9)--4|----------4----------4--5-7----(9)--5|----------2----------2--3-5----(7)--6|-0-7-0-3--2--0-7-0-3-2--3-5----(7)--( !)
-==1----------------------------------------------2|--------0-0-------0-----------------------------0-0-0-0-03|------0-----2-0-2---0-0-0-----0-2-0---0-------0----------4|--2-2---------------------4-4-------4---4-2-2------------5----------------------------------------------6-------------------------------------------------------------------------------0-0------------------------0---------2--2-2-0-0-0-------0-0---2--------------------4-4-4------------------------------------------------------------------------------==-0-0-0---------------0-0-0--------------------0-0-0---------------0-0-0-0-------------0-0-0-0------------------0-0-0-0---------------2-0-2---------------2-0-2-0------------------------------------------------------------4-----------------------------------------------------------------------------------------------------------------------------------------------------------------------------------------0-------2-0-2---0---0-----------2---------------2---4-4-4-4---------------------------------------------------------------------Em
Hm
G
D
, ,
Em
Hm
G
D
,
Em
Hm
,
G
D
,
Em
Hm
,
G
D
.

Em
Hm
G
D
, !
Em
Hm
G
D
, ,
Em
Hm
G
D
, .
Em
Hm
G
D
, !
, ,
, ,
, ,
.
,
, "!"
, ,
, !

Zdob si zdub doina haiducului


Dm
Freamata frunza in vant
C
Murmura apa in rau
Dm
Spicul plecat la pamant
C
Valura lanul de grau.

Gm

Gm

F
Fiul codrului sunt,
Gm
A7
Liber ca pasarea-n zbor
Bb
Gm
Doina haiducului cant
Dm
C
plina de jale si dor
Dm
Pusca-i logodnica mea,
5C%
Murgul e fratele meu
Dm
Viata-n codru e grea
C
Traiul haiducului greu

Gm

Gm

F
Pune-ti pistoalele-n brau
Gm
A7
Boierul la targ a pornit
Bb
Gm
Sloboade armasarul din frau
Dm
C
Rasplata prin noi a venit
F
C
Si cum imi place sa dorm
Dm
C
Noaptea in padure la foc
F
C
Stam impreuna cu toti
Gm
C
Visul, langa izvor.
F
C
Si cum imi place sa dorm
Dm
C
Noaptea in padure la foc
F
C
Stam impreuna cu toti
Gm
Dm
Visul, langa izvor.
Dm
Gm
Seara la rug, obositi
C
Canta haiducii de dor
Dm
Gm
Lasii au fost pedepsiti
C
De bogatiile lor

F
Drumul omului-i greu
Gm
A7
Pana la ultima stea
Bb
Gm
Liber e sufletul meu,
Dm
Libera-i inima mea.

F
C
Si cum imi place sa dorm
Dm
C
Noaptea in padure la foc
F
C
Stam impreuna cu toti
Gm
Dm
C
Visul, langa izvor.
F
C
Si cum imi place sa dorm
Dm
C
Noaptea in padure la foc
F
C
Stam impreuna cu toti
Gm
F
Visul, langa ...

Liube ti nesi menea reka

Am
F
,
C
G
,
Am
F
,
C
G
.
,
,
Am
F
...
7
Am
.
F
C
7
Am
,
F
C
7
Am
,
7 Dm E7
Am

Dm
Am
E7
.
.
, , .
Am
F
E7
Am
.

: G | C | G | Am | Em | F | C | G | C | C
G
Am
Em
F C
, , !
G
Am
Em
F
, , !
E7
Am
.

: - 3 - 2+1 - 3

Nikoliskii kogda poimeosh umom


C

F
G
C
, ,
C
F
G
C
,
C
F
G
Am
C
,
F
G
C
.
,
, .
,
.
,
.
, .
.
,
.
, ,
, , .
,
,
, ,
, .

Ceaif oy io
:
C | G | Am | F+7
C | G | Am | F+7 G
C
G
Am
F+7
- ,
C
G
Am
F+7 G
,
C
G
Am
F+7

,
C
G
Am
F+7 G
- .
C
-
C
-

G
-
G
-

Am
F
-,
Am
F
-

G
G

, ,
, .
: " , ",
, - .

,
, ,

C
-
C
-

G
-
G
-

,
,
,
.

Am
F
G
-, !
Am
F
G
-, !

:
C | G | Am | F
C | G | Am | F | C
Juki batareika
Hm
A
G
F#
e|-----7----|-----5---|----3---|-----2---|
H|----------|---------|--------|---------|
G|---7---7--|---6---6-|--4---4-|---3---3-|
D|----------|---------|--------|---------|
A|----------|---------|--------|---------|
E|-7--------|-5-------|-3------|-2-------|
Hm

A
G
F#

Hm
A
G
F#

\
|
|
/

, ,
, ,
.
Hm

A
G
F#
-----!
Hm
A
G
F#
-----!
,
,
-
.

: Hm | A | G | F#

> 2

: -,
, ,
.
.

> 2

: Hm | A | G | F#

> 4

> 2

: Hm | A | G | F#
> 2
Hm
: Hm=799777, A=577655, G=355433, F#=244322
, :
) - Am G F E
) - Em D C H(7)

KOSHKA SASHKA- VRAG

Am
F
,
C
E
.
-,
.
, ,
,
,
?
boy
, ,
:
, ,
, ,

.
, ,
, .
Dm
E
Am
F

, ,
, ,
, , .
:
Dm
E
,
Am
F
, ,
C
,

Am
, , - .
, , ,
, .
, ,
.
perebor

, ,
...
,
.
,
,
, ,
.

, ,
,
, ,
, ,

,
-.


, , .
, ,
...
.
, ,
.
,
, , .

,

:
, ,
, !
,
, ...

. .

, .
. .


, , .
, , .
, , ..

Bomj sector gaza

Am
,

Dm

E
- -
20
,
20
?
Dm
Am
,
G
C

Dm
Am
,
E
Am

,
,
,

,




60

( Hm)
Hm
, , , , .
, .
Em
, , ,
F#
, .
, , .
, .
.
, ?

Em
Hm
, ,
A
D
.
Em
Hm
, ,
F#
Hm
.
, ,
, .
, ,
.
Sector gaza lirika

F#m
E
,
Hm
F#m
.
F#m
E
Hm
F#m
---...
, .
, --,
...
:
A
E
.
Hm
F#m
.
A
E
A E
!
A
E
.
Hm
F#m
, .
A
C#
F#m
.

"".
---.


, !

- .
.
.
, .
!

Generali pesceanih carier

E --------0---------0--------0--------------B ----1-3---3-1-0-----1-3--0---3-1--0-3-1-0-G --2-------------2-------------------------E --------0---------5-3--0-5-3-1----3-1-0---B ----1-3---3-1-0-----------------3---------G --2-------------2-------------------------E --------0---------0--------0----------------B ----1-3---3-1-0-----1-3--0---3-1-0-3-1-0----G --2-------------2------------------------0-2


,
.
, .

, .
, ?
? ?
,
, .
,
.
.
,
.
, ,
.
, ,
, .
.
,
,

.
,
.