Вы находитесь на странице: 1из 16

-------------------------------------------------------------------------------La Polla Records

Los 7 enanitos
Salve ()
-------------------------------------------------------------------------------Colaboracin de Javi Martinez
javi_martinez@guay.com
-------------------------------------------------------------------------------GRUPO: La Polla (Records)
DISCO: Salve
TEMA : Los Siete Enanitos
Instrumento : Guitarra
Tabulado por : Devi y Txelo (jroyoma@nexo.es)

Este es el segundo Tabulado de La Polla que escribimos. A ver si nos ani


mamos
a escribir alguno ms.
s

Esta es una de las canciones ms katxondas de LPR, la de los siete enanito

Antes de empezar hay que aclarar que todos los acordes son kintas.
RIFF 1
e |-3-8-7-5---5-10-12-10-8-7--------8--------7-8-13-12-8-10-7-8--|
B |---------------------------8-10---8-8-10----------------------|
G |--------------------------------------------------------------|
D |--------------------------------------------------------------|
A |--------------------------------------------------------------|
E |--------------------------------------------------------------|
Como podis ver es un punteo de increible dificultad tecnica y rapidez.
Luego Evaristo empieza a cantar:
C5
A5
Ayho, ayho!
D5
G5
Al bosque a trabajar
C5
A5
D5
G5
los enanitos buenos tenemos que currar.
Ayho, ayho, ayho!
Aqui Evaristo no sigue el mismo ritmo que la guitarra
Evaristo canta esto:
Como hay mucho paro hijo
tienes que aguantarlo todo
como est la vida hoy

es que hay que comer.


Todo el da reventando
un cabrn beneficiando
encima con cachondeos
de amor al trabajo.
Ayho, ayho, ayho!
Cuando llega el final de mes
con mirada de desprecio
te reparten sus migajas
agradecimiento.
Somos enanitos,
somos los siete enanitos,
pero en este cuento
Blancanieves no folla con ellos.
Y a la vez que canta, la guitarra hace esto: C5, A5, D5, G5.
Escuchando la cinta sabris como va. Se repite todo el rato hasta que llega esto:

C5
A5
Ayho, ayho
D5
G5
Ya vale de picar
C5
A5
Los enanitos buenos,
D5
G5
al patrn han de matar.
Pues esto es todo amigos.
As son las kosas, y as os las hemos distorsionado. (Kamela 3)
Ya sabis Petas, bebidas, donativos, birra y dems a < jroyoma@nexo.es >
Si quieres saber todo sobre los petas, bebida, rock, punk, humor y dems,
nos puedes enkontrar en
La nueva era: http://members.xoom.com/La_nueva_era/

------> Podeis mandar vuestras sugerencias a madesmania.com

-------------------------------------------------------------------------------Este fichero es trabajo propio de su transcriptor y representa su interpretacin p


ersonal de la cancin. El usuario se compromete a utilizar este material nicamente
para su aprendizaje y estudio personal. Para poder incluir este fichero en otro
sitio Web, es necesario mencionar la procedencia del mismo (www.atame.org) as com
o el nombre y correo del transcriptor.
--------------------------------------------------------------------------------------------------------------------------------------------------------------La Polla Records
Lucky man for you

La Polla en tu Recto ()
-------------------------------------------------------------------------------Colaboracin de Javi Martinez
javi_martinez@guay.com
-------------------------------------------------------------------------------@Tab By Page Piru
GRUPO:LA POLLA RECORDS
ALBUM:LA POLLA EN TU RECTO
CANCION:LUCKY MAN FOR YOU

Cua, cua, cua, cua, cua, cua,...


G
Lavando el dinero de la mafia,
G
apoyando al fascismo mundial
G
"Amros los unos a los otros"
G
dice el asesino.
G
D
En la cocina la foto del Papa,
D
G
dentro de la bandera nacional
G
D
este amuleto ha de funcionar
D
G
Lucky man, Lucky man for you.
G
D
G
Lucky man, lucky man, lucky man, lucky man, lucky man, lucky man,
G
D
G
Lucky man, lucky man, lucky man, lucky man, lucky man for you.
A cuarenta pavos la reliquia,
milagro garantizado.
Si esto es vivir en serio,
preferimos hacer el indio.
Papa, papa, papa, papa, papa, papa
G
D
G
Lucky man, lucky man, lucky man, lucky man, lucky man, lucky man,
Papa, papa, papa, papa, papa, papa, papa, papa, papa, papa, papa
G
D
G
Lucky man, lucky man, lucky man, lucky man, lucky man for you!

-------------------------------------------------------------------------------Este fichero es trabajo propio de su transcriptor y representa su interpretacin p


ersonal de la cancin. El usuario se compromete a utilizar este material nicamente

para su aprendizaje y estudio personal. Para poder incluir este fichero en otro
sitio Web, es necesario mencionar la procedencia del mismo (www.atame.org) as com
o el nombre y correo del transcriptor.
--------------------------------------------------------------------------------------------------------------------------------------------------------------La Polla Records
No Mas Presos (BAS)
La Polla Records!
Revolucion (1985)
-------------------------------------------------------------------------------Colaboracin de alberto haro "genespunk"
genesel_real@hotmail.com
-------------------------------------------------------------------------------KE PEX?? YA VUELVO CON OTRO FACIL BAJEO DE LA POLLA,
ESPERO Y LES GUXTE, ASI COMO HAN CORRESPONDIDO CON
OTROS TABS!!
TAMBIEN ES UN SOLO RITMO, SOLO CAMBIA UN PAR DE ACORDES,
AMOLA PUESSSSSSSSS!!
TODO VA ALGO ASI..
SOL|-------------------------------------------|
RE |-------------------------------------------|
LA |---------3--3-3-2----------6-7-------------|
MI |--0--0-0-----------------------8-7-----3-0-|
SOL|-------------------------------------------|
RE |-------------------------------------------|
LA |------3--3-3-2-------------6-7-------------|
MI |--0-0--------------------------------------|
LETRA:
No a las crceles del Estado asesino
No!
No ms esconder los errores del sistema
No!
No al Estado terrorista que encierra
No!
a quien le sobra y a quien lucha contra l
No!
No queremos nadie preso y lucharemos por eso
No!
No ms presos!
No ms presos! No!
ASI VA TODO EL PEDO, SOLO ALLALE,
EL MOMENTO PAENTRARLE A LA TOKADA!!!!
AHORA SI A APOYAR A NUESTROS PRESOS INDIGENAS,
TAPATIOS Y DE TODO!!! AL A77AKE !!!GRRRRRR!!
www.geocities.com/el_genes

-------------------------------------------------------------------------------Este fichero es trabajo propio de su transcriptor y representa su interpretacin p


ersonal de la cancin. El usuario se compromete a utilizar este material nicamente
para su aprendizaje y estudio personal. Para poder incluir este fichero en otro
sitio Web, es necesario mencionar la procedencia del mismo (www.atame.org) as com
o el nombre y correo del transcriptor.
--------------------------------------------------------------------------------------------------------------------------------------------------------------La Polla Records
No somos nada
No somos nada ()
-------------------------------------------------------------------------------Colaboracin de Javi Martinez
javi_martinez@guay.com
-------------------------------------------------------------------------------NO SOMOS NADA
( LA POLLA RECORDS )
FCGC
Somos los nietos de los obreros que nunca pudimos desmatar
Por eso nunca nunca votamos al partido popular
Mira al psoe y a sus traidores mira a ninguno de los demas
Somos los nietos de los que perdieron la guerra civil
C
NO
NO

C
SOMOS
SOMOS

FED

NADA!!!!!!!
NADA!!!!!!!

Somos los nietos de los


No somos punk ni mod ni
Quereis engaarnos pero
Somos los nietos de los
NO
NO
Somos
Somos
Somos
Somos
NO
NO

SOMOS
SOMOS
los
los
los
los

nietos
nietos
nietos
nietos
SOMOS
SOMOS

obreros que nunca pudimos desmatar


heavy rocker skin o techno
no pedeis tampoco tenemos precio
que perdieron la guerra civil
NADA!!!!!!!
NADA!!!!!!!

de
de
de
de

los
los
los
los

obreros que nunca pudimos desmatar


que perdieron la guerra civil
obreros que nunca pudimos desmatar
que perdieron la guerra civil
NADA!!!!!!!
NADA!!!!!!!

Kieres identificarnos tienes un problema


Kieres identificarnos tienes un problema
FCGC
Kieres identificarnos tienes un problema

Esos acordes los hace una guitarra y la otra hace esto:


|-----------------------------------------------------------|
|-----------------------------------------------------------|
|-----------------------------------------------------------|
|---3---2---0----2----------------3----2----0---------------|
|-------------------------3------------------------3--------|
|-----------------------------------------------------------|

es estribillo lo hacen las dos guitarra


A VER SI EMPIEZAN A APARECER MAS TABS DE LA POLLA Y DEL ULTIMO KE ZIERRE
PARA CUALQUIER COSA chupones@teleline.es
Alberto Valdes
Caso de copiar estos acordes para otra Web. citar claramante: Transcriptor, E-Ma
il y su
procedencia de Centro Musical.

-------------------------------------------------------------------------------Este fichero es trabajo propio de su transcriptor y representa su interpretacin p


ersonal de la cancin. El usuario se compromete a utilizar este material nicamente
para su aprendizaje y estudio personal. Para poder incluir este fichero en otro
sitio Web, es necesario mencionar la procedencia del mismo (www.atame.org) as com
o el nombre y correo del transcriptor.
--------------------------------------------------------------------------------------------------------------------------------------------------------------La Polla Records
Nuestra Alegre Juventud
-------------------------------------------------------------------------------Colaboracin de Tonino
txarli_94@yahoo.com
-------------------------------------------------------------------------------+ Tabulados de made in spain!
+
+ (http://mades.kaos.es)
+
+++++++++++++++++++++++++++++++++++++++++++++++++
No disfrutamos trabajando
ni disfrutamos en el paro
No, no, no, no.
RE
Que podemos hacer con tanto dinero.

Que podemos hacer con las ventajas sociales.


LA
DO
Vamos dejando pasar, nuestra alegre juventud
LA
DO
Que ms se puede pedir! Nuestra alegre juventud!
RE
Los maderos cuidan de nuestra seguridad Tururu!
estando con ellos nada nos puede pasar Bah!
LA
DO
Vamos dejando pasar, nuestra alegre juventud
LA
DO
Que ms se puede pedir! Nuestra alegre juventud!
RE
Es increible como resulta el sistema
os felicito y os doy mi enhorabuena
L A
DO
Vamos dejando pasar, nuestra alegre juventud
LA
DO
Que ms se puede pedir! Si ms no nos pueden dar por culo!

RE

-------------------------------------------------------------------------------Este fichero es trabajo propio de su transcriptor y representa su interpretacin p


ersonal de la cancin. El usuario se compromete a utilizar este material nicamente
para su aprendizaje y estudio personal. Para poder incluir este fichero en otro
sitio Web, es necesario mencionar la procedencia del mismo (www.atame.org) as com
o el nombre y correo del transcriptor.
--------------------------------------------------------------------------------------------------------------------------------------------------------------La Polla Records
Pastelarum
Lpr
Toda la puta vida igual (1999)
-------------------------------------------------------------------------------Colaboracin de Alexander
alacalle@ave128.retena.es
-------------------------------------------------------------------------------intro:
(A A D G) x4
A

A
C
G
Dnde guardar el pasado, los buenos momentos?
A
A
C
G
dnde tu voz y tu aliento, si entn en mi cuerpo?
A
A
C
G
Dnde llevar el recuerdo de un tiempo que ya pas,
A
A
C
G
cuando olvide que en el miedo se mueren los sueos?

D
G
D
Dnde enterrar lo que ha muerto?
G
D
cuando se va el sentimiento?
G D G
A
A
C
G
Mirando estoy, y mis ojos ya no pueden verte
A
A
C
G
oscuridad fuera y dentro, en este silencio
A
A
C
G
Cayendo estoy, y mis manos no saben donde buscar
A
A
C
G
La soledad, este infierno, que fro me siento
D
G
D
Dnde enterrar lo que ha muerto?
G
D
cuando se va el sentimiento?
G D G D
A
A
C
G
Y la magia de tu risa, que ya nunca oigo,
A
A
C
G
sigue viva en mi cabeza, y no morir jams
Solo
Dnde enterrar lo que ha muerto cuando se va el sentimiento?

-------------------------------------------------------------------------------Este fichero es trabajo propio de su transcriptor y representa su interpretacin p


ersonal de la cancin. El usuario se compromete a utilizar este material nicamente
para su aprendizaje y estudio personal. Para poder incluir este fichero en otro
sitio Web, es necesario mencionar la procedencia del mismo (www.atame.org) as com
o el nombre y correo del transcriptor.
--------------------------------------------------------------------------------------------------------------------------------------------------------------La Polla Records
Porno en Accin
-------------------------------------------------------------------------------Colaboracin de Tonino
txarli_94@yahoo.com
-------------------------------------------------------------------------------+ Tabulados de made in spain!
+ (http://mades.kaos.es)

+
+

+++++++++++++++++++++++++++++++++++++++++++++++++
Mejor color, mejor sonido, mejor calidad.
La estrella del porno
bella mujer a su disposicin
en numeros excitantes.
Juego para tres y el perro
los perros tambin participan
el camarero bisexual.
Sexo para todos los gustos!
Dubidubi...
Mejor calidad, mejor sonido,
mejor color, ms metraje.
Aventuras sin fin en una habitacin
la ninfomana insaciable
el ms salvaje follador
sexo a golpes. El ltigo
poneros calientes
antes de que el sexo os reviente.
Dubidubi...
este tema es super facil las notas son las siguientes:
para tocarlo com sale en en salve son: SI LA SOL# LA ( SI SE TOCA TRES VECES Y U
NA CADA UNA LAS OTRAS)

-------------------------------------------------------------------------------Este fichero es trabajo propio de su transcriptor y representa su interpretacin p


ersonal de la cancin. El usuario se compromete a utilizar este material nicamente
para su aprendizaje y estudio personal. Para poder incluir este fichero en otro
sitio Web, es necesario mencionar la procedencia del mismo (www.atame.org) as com
o el nombre y correo del transcriptor.
--------------------------------------------------------------------------------------------------------------------------------------------------------------La Polla Records
Salve
-------------------------------------------------------------------------------a28315@aq.upm.es
-------------------------------------------------------------------------------+ Tabulados de made in spain!
+
+ (http://mades.kaos.es)
+
+++++++++++++++++++++++++++++++++++++++++++++++++
ATENCION , ESTO ES LA VERSION EN DIRECTO ! (L.P.E.T R.)
G
A G
A
Salve Regina Mater Misericordia Mater Misericordia
(a capella)
G
A
G
A cuenta de prometer

A
el reino de los cielos
G
algunos vivillos
A
lo que estan haciendo
G
A
es su propio cielo particular en la tierra
G
compre un pedazo de cielo
A
pagando la cuota mensual
...
Esquema del riff de guitarra:
G
A
|-X----X---X-X---|-X----X---X-X---|-X----X---X-X---|-X----X---X-X---|
Acordes:
G A
-3- -5-3- -5-4- -6-5- -7-5- -7-3- -5by LDAP - Comentarios y dem s: a28315@aq.upm.es / daarr@usa.net
http://corbu.aq.upm.es/~a28315

-------------------------------------------------------------------------------Este fichero es trabajo propio de su transcriptor y representa su interpretacin p


ersonal de la cancin. El usuario se compromete a utilizar este material nicamente
para su aprendizaje y estudio personal. Para poder incluir este fichero en otro
sitio Web, es necesario mencionar la procedencia del mismo (www.atame.org) as com
o el nombre y correo del transcriptor.
--------------------------------------------------------------------------------------------------------------------------------------------------------------La Polla Records
Txus
-------------------------------------------------------------------------------Colaboracin de Javi Martinez
javi_martinez@guay.com
-------------------------------------------------------------------------------Tab by Page Piru
GRUPO:LA POLLA RECORDS
ALBUM:LA POLLA EN TU RECTO
CANCION:TXUS
Bueno Gafas flipia que estoy yo to flipao que acabo de sacar un solico

to currao de la polla .No creo que lo veas hasta que no te lo pase por
supuesto.
ESTROFAS:
C
F
G
Txus es una alcoholico,Txus esta nervioso,
Tiene alucinaciones de su ducha sale alcohol hirviendo,
Esto no puede ser esto no hay quien lo aguante tiene que llevarse a alguien por
delante,
Txus esta nervioso,txus esta violento alguien va apagar sus nervios.
A
A
Se monta una bronca txus esta en el suelo
A
G
Ahora esta contento muerto
Solillo:(2 veces)
--------------------------------------7-9---10-9-7-5--8-5----------9--9---9-----------6---------------------9-----------------------------------------------------------------------------------------Uooo Uooo Uooo
C
En su tumba hay latas de cerveza
F
G
Txus no bebas tanto,no pierdas la cabeza

Bueno esto es todo gafas,ya seguire vacilandote.jeje hazme un favor no la intent


es sacar tu.

-------------------------------------------------------------------------------Este fichero es trabajo propio de su transcriptor y representa su interpretacin p


ersonal de la cancin. El usuario se compromete a utilizar este material nicamente
para su aprendizaje y estudio personal. Para poder incluir este fichero en otro
sitio Web, es necesario mencionar la procedencia del mismo (www.atame.org) as com
o el nombre y correo del transcriptor.
--------------------------------------------------------------------------------------------------------------------------------------------------------------La Polla Records
Un rayo de sol (BAS)
La Polla Records
Revolucion (1985)
-------------------------------------------------------------------------------Colaboracin de alberto haro "genespunk"
genesel_real@hotmail.com
--------------------------------------------------------------------------------

ESTA CANCION ES LA MAS FACIL KE HE ENVIADO, SOLO ES UN


SOLO RITMILLO EN TODA LA ROLA YA KE EL BAJO ES LA
INFRAESTRUCTURA DE ESTA CANCION, VAMOS PUES!!!!
SOL|---------------------|
RE |---------4-4-0-------|
LA |-2-2-2-2-------2--0--|
MI |---------------------|
SOL|-------------------------|
RE |-----0-2---------4-4-----|
LA |---0-----2-2-2-2-----2-0-|
MI |-------------------------|
Y ESO ES TODO, SOLO ACOMPAEN A LA LETRA Y EL RITMO KASI ASI....
Un rayo de sol pasa a duras penas por entre el aire contaminado,
alumbrando el mar azul lleno de ful,
y los verdes campos son basureros del plstico sobrante;
los frondosos bosques, pelados de lluvia cida
La plida luna est ocupada por rusos y americanos
Qu puedo hacer?, creo en el Banco de Santander
Estamos con la gente, con toda la gente, la buena gente
Y ESO ES TODO!!!
PARA CITAS - ACLARACIONES - CERVEZAS- VISITAME EN LA RED!!!!!!
www.geocities.com/el_genes
Y ESO ES TODO AMIG@S!!
SE DESPIDE SU AMIGO EL GENESPUNK, NOS VEMOS EN EL TIANGUIS KULTURAL!!
(gdl.jal.mex.)
KAMARA.
-------------------------------------------------------------------------------Este fichero es trabajo propio de su transcriptor y representa su interpretacin p
ersonal de la cancin. El usuario se compromete a utilizar este material nicamente
para su aprendizaje y estudio personal. Para poder incluir este fichero en otro
sitio Web, es necesario mencionar la procedencia del mismo (www.atame.org) as com
o el nombre y correo del transcriptor.
--------------------------------------------------------------------------------------------------------------------------------------------------------------La Polla Records
Vuestra maldicin
La polla en tu recto ()
-------------------------------------------------------------------------------Colaboracin de Javi Martinez
javi_martinez@guay.com
--------------------------------------------------------------------------------

@Tab by Warrior
http://rockk.net
Intro
----C G
Estrofa
------C
G
C
G
Acostrumbais a los crios ha obedeceros
manipulais su educacion para conseguir
ke siga esta demencia y os creeis preparaos
Estribillo:
---------C
G
Esta es vuestra maldicion maldicion
violencia maldicion maldicion

ke esta mal
toy

Si no te aklaras kon algo,tienes dudas,sugerencias,krees


o simplemente te apeteze enviar un e-mail aki es
<warrior_g@teleline.es>
o visita la sekzion RockK ZOne de mi peich
Hasta otra!

<http://rockK.net>

Warrior_

-------------------------------------------------------------------------------Este fichero es trabajo propio de su transcriptor y representa su interpretacin p


ersonal de la cancin. El usuario se compromete a utilizar este material nicamente
para su aprendizaje y estudio personal. Para poder incluir este fichero en otro
sitio Web, es necesario mencionar la procedencia del mismo (www.atame.org) as com
o el nombre y correo del transcriptor.
--------------------------------------------------------------------------------------------------------------------------------------------------------------La Polla Records
Y ahora que
Evaristo y La Polla Records
-------------------------------------------------------------------------------Colaboracin de alberto haro "genespunk"
genesel_real@hotmail.com
--------------------------------------------------------------------------------

HOLA KE TAL???
AKI MANDO UNA ROLA MAXXX, DE *LA POLLA*, ESPERANDO KE
LES GUSTE. ESTA CANCION, VA A ACORDE CON EL SUPERBAJEO!,
TAN PERSONALIZADO KE MAND DE LA MISMA ROLA, YA SABEN,
PAKE SE ACOMPAEN, BUENO, VAMOS AL GRANO CON....
-- Y AHORA

QUE ??? !!! ----...

ANTES DE EMPEZAR, SOLO KIERO ACLARAR, KE ESTA CANCION,


SE TOKA , CON LOS MISMOS ACORDES,EL RITMO YA DEPENDE
DE TI, OSEA KE SE REPITEN EN TODA , LA ROLA ASI KE ES
FACILISCIMA, KAMARA...
-------->
INTRO:
DO SOL FA DO (X 2)
--->
LUEGO, ACOMPAA LA VOZ...
DO
SOL
Toda la vida, comiendome el coco
FA
DO
Pero ya ves que os sirve de poco;
-->(Y ASI VAMOS EN TODO EL VERSO..)<--------------------->
ESTRIBILLO...
DO
SOL
Y ahora que,(ahora que?)Y ahora que (ahora que)
FA
DO
y ahora que, me vas hacer
----->
y eso es todo, solo se repiten las notas,
en las strofas y lo mismo en el estribillo y fin.
----->
Y A TOKAR KARAJOS, SI KIERES SABER MAS DE
LA POLLA VISITA MI HUMILDE 'PUNKWEB'...
http://www.geocities.com/el_genes
Kamara y nos vemos en los tokines, o el kultural el
sabadaba... bye.
GUADALAJARA,JALISCO,MEXICO,PLANETA TIERRA.
'GENEPUNK'....
--------------------------------------------------------------------------------

Este fichero es trabajo propio de su transcriptor y representa su interpretacin p


ersonal de la cancin. El usuario se compromete a utilizar este material nicamente
para su aprendizaje y estudio personal. Para poder incluir este fichero en otro
sitio Web, es necesario mencionar la procedencia del mismo (www.atame.org) as com
o el nombre y correo del transcriptor.
--------------------------------------------------------------------------------------------------------------------------------------------------------------La Polla Records
Ya no quiero ser yo
-------------------------------------------------------------------------------Colaboracin de Javi Martinez
javi_martinez@guay.com
-------------------------------------------------------------------------------@Tab by Page Piru
Acordes: 1: G---9--D---9--A---7--E-------

2: G---11---D---11---A----9---E---------

Intro:
- Se tocan unos acordes que vienen a ser algo as:
5)x2 F#5 D5 A5 1

F#5 D5 F#5 E5 F#5 (D5 A

Hay una parte inicial (despus de la intro) que se repite en la cancin: Lalalalara,
lalalalara... Esta parte se toca con los acordes: F#5 D5 F#5 E5 F#5 D5 A5
1
(similares al resto de cancion)
Al tajo:
F#5
D5
F#5
E5
Me he mirado en el espejo y no me he reconocido en el estrao que se ve tr
as el cristal.
F#5
D5
A
1
Si el pasado y el presente se reflejan y no mienten tengo que hacer algo
por mi porvenir.
A
1
D5
1
D5-C#5-A5-C#5-B5
Ya no quiero ser yo, ya no quiero ser yo, ya no.

igual.

C#5 2
D5
A5
C#5
2
1
Mi paciencia tiene un limite, y se acaba hoy.
C#5
2
D5
A5
C#5
2
1
Voy a mirar de lejos, y nunca volvere, que el maana es tarde y todo sera

F#5
D5
F#5
E5
Voy a ser el rey de Roma o el alcalde de Pamplona o el payaso que dispar
e sobre ti.
F#5
D5
A5
1
Entrare en otra persona o en los huevos de Mahoma da lo mismo quiero est

ar fuera de mi
(Punteo)
1 | ------5-9-12-5---5-5-5-3-5----5-7-5---4-----(5-4)x6-0-5-4-0-4-(5-4)
x6-4-5-7-4-0-4- |
2 | ---------------5----------5--------5---5-0----------------------------------------|
3 | ----------------------------------------------------------------------------------|
4 | ----------------------------------------------------------------------------------|
5 | ----------------------------------------------------------------------------------|
6 | ----------------------------------------------------------------------------------|
D5
A5
C#5
Voy a ser un rico triste o el psiquiatra de la virgen cuando tuvo que co
ntarle lo del nio a San Jose.
2
D5 A5
C#52
1 C#5
2
D5
A5
C#5
2
Hoy voy a matar esta vida gris quiero enloquecer, voy a mirar de lejos y
nunca volvere, que el maana
1
es tarde y todo sera igual.
E5

F#5

-------------------------------------------------------------------------------Este fichero es trabajo propio de su transcriptor y representa su interpretacin p


ersonal de la cancin. El usuario se compromete a utilizar este material nicamente
para su aprendizaje y estudio personal. Para poder incluir este fichero en otro
sitio Web, es necesario mencionar la procedencia del mismo (www.atame.org) as com
o el nombre y correo del transcriptor.
--------------------------------------------------------------------------------