Вы находитесь на странице: 1из 12

3 Doors Down

"Kryptonite"
Intro - Note: Band Enters On The 3rd Repeat Of 1st Measure
Guitar 1 (Clean - Arpeggate As Follows)
Guitar 2 (Clean - Strum Chords)
Repeat - 3x
Bm
G
Asus2
e|-----------------------------------------------------------------------------|
B|--------------3-----------------------------------------------------------0--|
G|*---------4--------4---------0--------------------0-----------------2--------*
|
D|*-----4-----------------4-------------------0-----------------2--------------*
|
A|---2-----------------------------------2----------------0--------------------|
E|----------------------------------3------------------------------------------|
Bm
G
A/D
e|--------------------------------------------------------------0--------------|
B|--------------3-----------------------------------------------------2--------|
G|----------4--------4---------0--------------------0-----------------------2--|
D|------4-----------------4-------------------0--------------------------------|
A|---2-----------------------------------2----------------0--------------------|
E|----------------------------------3------------------------------------------|
Verse 1 Guitar 1 (Clean - Arpeggate As Follows)
Guitar 2 (Clean - Strum Chords)
Bm
G
Asus2
e|-----------------------------------------------------------------------------|
B|--------------3-----------------------------------------------------------0--|
G|----------4--------4---------0--------------------0-----------------2--------|
D|------4-----------------4-------------------0-----------------2--------------|
A|---2-----------------------------------2----------------0--------------------|
E|----------------------------------3------------------------------------------|
I took a walk around the world to Ease my troubled mind
Bm
G
Asus2
e|-----------------------------------------------------------------------------|
B|--------------3-----------------------------------------------------------0---

|
G|----------4--------4---------0--------------------0-----------------2--------|
D|------4-----------------4-------------------0-----------------2--------------|
A|---2-----------------------------------2----------------0--------------------|
E|----------------------------------3------------------------------------------|
I left my body laying somewhere In the sands of time
Guitar 2 (Distorted) - Start Feedback Now
Bm
G
Asus2
e|-----------------------------------------------------------------------------|
B|--------------3-----------------------------------------------------------0--|
G|----------4--------4---------0--------------------0-----------------2--------|
D|------4-----------------4-------------------0-----------------2--------------|
A|---2-----------------------------------2----------------0--------------------|
E|----------------------------------3------------------------------------------|
I watched the world float to the dark Side of the moon
Bm
G
A/D
e|--------------------------------------------------------------0--------------|
B|--------------3-----------------------------------------------------2--------|
G|----------4--------4---------0--------------------0-----------------------2--|
D|------4-----------------4-------------------0--------------------------------|
A|---2-----------------------------------2----------------0--------------------|
E|----------------------------------3------------------------------------------|
I feel there is nothing I can do_______
Repeat 2x
Guitar 1 (Clean)
Bm
Bm
G
Asus2
e|---2--2--x--x--2--2--x--x--3--3--x--x--0--0--x--x---|
B|---3--3--x--x--3--3--x--x--3--3--x--x--0--0--x--x---|
G|---4--4--x--x--4--4--x--x--0--0--x--x--2--2--x--x---|
D|---4--4--x--x--4--4--x--x--0--0--x--x--2--2--x--x---|
A|---2--2--x--x--2--2--x--x--2--2--x--x--0--0--x--x---|
E|---2--2--x--x--2--2--x--x--3--3--x--x--0--0--x--x---|
|
|
|Guitar 2 (Distorted) - Hold This Chord 2x
|
| B5
|
e|----------------------------------------------------|
B|----------------------------------------------------|
G|---4------------(4)---------(4)---------(4)---------|
D|---4------------(4)---------(4)---------(4)---------|

A|---2------------(2)---------(2)---------(2)---------|
E|----------------------------------------------------|
Yeah
Verse 2 Guitar 1 (Clean - Arpeggate As Follows)
Guitar 2 (Clean - Strum Chords)
Bm
G
Asus2
e|-----------------------------------------------------------------------------|
B|--------------3-----------------------------------------------------------0--|
G|----------4--------4---------0--------------------0-----------------2--------|
D|------4-----------------4-------------------0-----------------2--------------|
A|---2-----------------------------------2----------------0--------------------|
E|----------------------------------3------------------------------------------|
I watched the world float to the Dark side of the moon
Bm
G
A/D
e|--------------------------------------------------------------0--------------|
B|--------------3-----------------------------------------------------2--------|
G|----------4--------4---------0--------------------0-----------------------2--|
D|------4-----------------4-------------------0--------------------------------|
A|---2-----------------------------------2----------------0--------------------|
E|----------------------------------3------------------------------------------|
After all I knew it had to be something To do with you
Bm
G
Asus2
e|-----------------------------------------------------------------------------|
B|--------------3-----------------------------------------------------------0--|
G|----------4--------4---------0--------------------0-----------------2--------|
D|------4-----------------4-------------------0-----------------2--------------|
A|---2-----------------------------------2----------------0--------------------|
E|----------------------------------3------------------------------------------|
I really don t mind what happens now and then
Guitar 2 (Distorted) - Start Feedback Now
Bm
G
A/D
e|--------------------------------------------------------------0--------------|
B|--------------3-----------------------------------------------------2---------

|
G|----------4--------4---------0--------------------0-----------------------2--|
D|------4-----------------4-------------------0--------------------------------|
A|---2-----------------------------------2----------------0--------------------|
E|----------------------------------3------------------------------------------|
As long as you ll be my friend at the end
Chorus Guitar 1 & 2 (Distorted)
B5
G5
A5
e|-------------------------------------------------------------------|
B|-------------------------------------------------------------------|
G|---4-4-4---4-4-4---4-4-4---4-4-4-------------------2-2-2---2-2-2---|
D|---4-4-4---4-4-4---4-4-4---4-4-4---5-5-5---5-5-5---2-2-2---2-2-2---|
A|---2-2-2---2-2-2---2-2-2---2-2-2---5-5-5---5-5-5---0-0-0---0-0-0---|
E|-----------------------------------3-3-3---3-3-3-------------------|
If I go crazy then will you still Call me Superman
B5
E5
F#5
e|-------------------------------------------------------------------|
B|-------------------------------------------------------------------|
G|---4-4-4---4-4-4---4-4-4---4-4-4-----------------------------------|
D|---4-4-4---4-4-4---4-4-4---4-4-4---2-2-2---2-2-2---4-4-4---4-4-4---|
A|---2-2-2---2-2-2---2-2-2---2-2-2---2-2-2---2-2-2---4-4-4---4-4-4---|
E|-----------------------------------0-0-0---0-0-0---2-2-2---2-2-2---|
If I m alive and well, will you be There holding my hand
B5
G5
A5
e|-------------------------------------------------------------------|
B|-------------------------------------------------------------------|
G|---4-4-4---4-4-4---4-4-4---4-4-4-------------------2-2-2---2-2-2---|
D|---4-4-4---4-4-4---4-4-4---4-4-4---5-5-5---5-5-5---2-2-2---2-2-2---|
A|---2-2-2---2-2-2---2-2-2---2-2-2---5-5-5---5-5-5---0-0-0---0-0-0---|
E|-----------------------------------3-3-3---3-3-3-------------------|
I ll keep you by my side with My superhuman might
B5
E5
F#5
e|-------------------------------------------------------------------|
B|-------------------------------------------------------------------|
G|---4-4-4---4-4-4---4-4-4---4-4-4-----------------------------------|
D|---4-4-4---4-4-4---4-4-4---4-4-4---2-2-2---2-2-2---4-4-4---4-4-4---|
A|---2-2-2---2-2-2---2-2-2---2-2-2---2-2-2---2-2-2---4-4-4---4-4-4---|
E|-----------------------------------0-0-0---0-0-0---2-2-2---2-2-2---|
Kryptonite
Repeat 2x
Guitar 1 (Clean - Arpeggate As Follows)
Bm
G
Asus2
e|-----------------------------------------------------------------------------|
B|--------------3-----------------------------------------------------------0--|
G|*---------4--------4---------0--------------------0-----------------2--------*
|

D|*-----4-----------------4-------------------0-----------------2--------------*
|
A|---2-----------------------------------2----------------0--------------------|
E|----------------------------------3------------------------------------------|
|
|
|Guitar 2 (Distorted) - Hold This Chord 2x
|
| B5
|
e|-----------------------------------------------------------------------------|
B|-----------------------------------------------------------------------------|
G|---4---------(4)---------(4)--------(4)---------(4)---------(4)--------(4)---|
D|---4---------(4)---------(4)--------(4)---------(4)---------(4)--------(4)---|
A|---2---------(2)---------(2)--------(2)---------(2)---------(2)--------(2)---|
E|-----------------------------------------------------------------------------|
Verse 3 Guitar 1 (Clean - Arpeggate As Follows)
Guitar 2 (Clean - Strum Chords)
Bm
G
Asus2
e|-----------------------------------------------------------------------------|
B|--------------3-----------------------------------------------------------0--|
G|----------4--------4---------0--------------------0-----------------2--------|
D|------4-----------------4-------------------0-----------------2--------------|
A|---2-----------------------------------2----------------0--------------------|
E|----------------------------------3------------------------------------------|
You called me strong, you called me weak, But still your secrets I
will keep
Bm
G
A/D
e|--------------------------------------------------------------0--------------|
B|--------------3-----------------------------------------------------2--------|
G|----------4--------4---------0--------------------0-----------------------2--|
D|------4-----------------4-------------------0--------------------------------|
A|---2-----------------------------------2----------------0--------------------|
E|----------------------------------3------------------------------------------|
You took for granted all the times I Never let you down

Bm
G
Asus2
e|-----------------------------------------------------------------------------|
B|--------------3-----------------------------------------------------------0--|
G|----------4--------4---------0--------------------0-----------------2--------|
D|------4-----------------4-------------------0-----------------2--------------|
A|---2-----------------------------------2----------------0--------------------|
E|----------------------------------3------------------------------------------|
You stumbled in and bumped your head, if Not for me then you would
be dead
Guitar 2 (Distorted) - Start Feedback Now
Bm
G
A/D
e|--------------------------------------------------------------0--------------|
B|--------------3-----------------------------------------------------2--------|
G|----------4--------4---------0--------------------0-----------------------2--|
D|------4-----------------4-------------------0--------------------------------|
A|---2-----------------------------------2----------------0--------------------|
E|----------------------------------3------------------------------------------|
I picked you up and put you back On solid ground
Chorus Guitar 1 & 2 (Distorted)
B5
G5
A5
e|-------------------------------------------------------------------|
B|-------------------------------------------------------------------|
G|---4-4-4---4-4-4---4-4-4---4-4-4-------------------2-2-2---2-2-2---|
D|---4-4-4---4-4-4---4-4-4---4-4-4---5-5-5---5-5-5---2-2-2---2-2-2---|
A|---2-2-2---2-2-2---2-2-2---2-2-2---5-5-5---5-5-5---0-0-0---0-0-0---|
E|-----------------------------------3-3-3---3-3-3-------------------|
If I go crazy then will you still Call me Superman
B5
E5
F#5
e|-------------------------------------------------------------------|
B|-------------------------------------------------------------------|
G|---4-4-4---4-4-4---4-4-4---4-4-4-----------------------------------|
D|---4-4-4---4-4-4---4-4-4---4-4-4---2-2-2---2-2-2---4-4-4---4-4-4---|
A|---2-2-2---2-2-2---2-2-2---2-2-2---2-2-2---2-2-2---4-4-4---4-4-4---|
E|-----------------------------------0-0-0---0-0-0---2-2-2---2-2-2---|
If I m alive and well, will you be There holding my hand
B5
G5
A5
e|-------------------------------------------------------------------|
B|-------------------------------------------------------------------|
G|---4-4-4---4-4-4---4-4-4---4-4-4-------------------2-2-2---2-2-2---|
D|---4-4-4---4-4-4---4-4-4---4-4-4---5-5-5---5-5-5---2-2-2---2-2-2---|

A|---2-2-2---2-2-2---2-2-2---2-2-2---5-5-5---5-5-5---0-0-0---0-0-0---|
E|-----------------------------------3-3-3---3-3-3-------------------|
I ll keep you by my side with My superhuman might
B5
E5
F#5
e|-------------------------------------------------------------------|
B|-------------------------------------------------------------------|
G|---4-4-4---4-4-4---4-4-4---4-4-4-----------------------------------|
D|---4-4-4---4-4-4---4-4-4---4-4-4---2-2-2---2-2-2---4-4-4---4-4-4---|
A|---2-2-2---2-2-2---2-2-2---2-2-2---2-2-2---2-2-2---4-4-4---4-4-4---|
E|-----------------------------------0-0-0---0-0-0---2-2-2---2-2-2---|
Kryptonite
Solo Repeat 2x
Guitar 1 (Distorted)
e|---------------------------------------------------|
B|---------------------------------------------------|
G|*--------------------------------------------------|
D|*--------------------------------------------------|
A|---2---4---5---4---5---4---7---5---4---5---4---5---|
E|---------------------------------------------------|
|
|
|Guitar 2 (Distorted - Hold Chords in ()'s)
|
|
|
e|---------------------------------------------------|
B|---------------------------------------------------|
G|*--4---(4)---(4)---(4)-----9--(9)---7---(7)---(7)--|
D|*--4---(4)---(4)---(4)-----9--(9)---7---(7)---(7)--|
A|---2---(2)---(2)---(2)-----7--(7)---5---(5)---(5)--|
E|---------------------------------------------------|
e|------------------------------------------------------|
B|------------------------------------------------------|
G|-----------------------------------------------------*|
D|-----------------------------------------------------*|
A|---2---0---2---0---2---0------------------------------|
E|---------------------------0--0--0--000--2--2--2--222-|
|
|
e|------------------------------------------------------|
B|------------------------------------------------------|
G|---4---(4)---(4)---(4)-------------------------------*|
D|---4---(4)---(4)---(4)-----2---(2)---4---(4)---(4)---*|
A|---2---(2)---(2)---(2)-----2---(2)---4---(4)---(4)----|
E|---------------------------0---(0)---2---(2)---(2)----|
Repeat 2x
Guitar 1 (Clean - Arpeggate As Follows)
Bm
G
A
e|---------------2--------------------------3---------------------0------------|
B|-------------------3-------3-------------------3--------------------2--------|
G|----------4------------4-----------------------------------2-----------------|

D|-------4----------------------------------------------2----------------------|
A|---2---------------------------------2---------------------------------------|
E|--------------------------------3--------------------------------------------|
|
|
|Guitar 2 (Distorted) - Hold This Chord 2x
|
| B5
|
e|-----------------------------------------------------------------------------|
B|-----------------------------------------------------------------------------|
G|---4---------(4)---------(4)--------(4)---------(4)---------(4)--------(4)---|
D|---4---------(4)---------(4)--------(4)---------(4)---------(4)--------(4)---|
A|---2---------(2)---------(2)--------(2)---------(2)---------(2)--------(2)---|
E|-----------------------------------------------------------------------------|
Chorus Guitar 1 (Clean - Arpeggate As Follows)
Guitar 2 (Clean - Strum Chords)
Bm
G
A
e|---------------2--------------------------3---------------------0------------|
B|-------------------3-------3-------------------3--------------------2--------|
G|----------4------------4-----------------------------------2-----------------|
D|-------4----------------------------------------------2----------------------|
A|---2---------------------------------2---------------------------------------|
E|--------------------------------3--------------------------------------------|
If I go crazy
then
will you still Call me
Superman
Bm
G
A
e|---------------2--------------------------3---------------------0------------|
B|-------------------3-------3-------------------3--------------------2--------|
G|----------4------------4-----------------------------------2-----------------|
D|-------4----------------------------------------------2----------------------|
A|---2---------------------------------2---------------------------------------|
E|--------------------------------3--------------------------------------------|
|
|

|Guitar 2 (Clean)
|
|
Bm
G
A
|
e|---------------2--------------------------3---------------------0------------|
B|-------------------3---------------------------3--------------------2--------|
G|-----------------------------------------------------------------------------|
D|-----------------------------------------------------------------------------|
A|-----------------------------------------------------------------------------|
E|-----------------------------------------------------------------------------|
If I m alive and well, will you be There holding my
hand
Bm
G
A
e|---------------2--------------------------3---------------------0------------|
B|-------------------3-------3-------------------3--------------------2--------|
G|----------4------------4-----------------------------------2-----------------|
D|-------4----------------------------------------------2----------------------|
A|---2---------------------------------2---------------------------------------|
E|--------------------------------3--------------------------------------------|
|
|
|
Bm
G
A
|
e|---------------2--------------------------3---------------------0------------|
B|-------------------3---------------------------3--------------------2--------|
G|-----------------------------------------------------------------------------|
D|-----------------------------------------------------------------------------|
A|-----------------------------------------------------------------------------|
E|-----------------------------------------------------------------------------|
I ll keep you by my side with My
superhuman
might
Bm
G
A
e|---------------2--------------------------3---------------------0------------|
B|-------------------3-------3-------------------3--------------------2--------|
G|----------4------------4-----------------------------------2-----------------|
D|-------4----------------------------------------------2----------------------|

A|---2---------------------------------2---------------------------------------|
E|--------------------------------3--------------------------------------------|
|
|
|
Bm
G
A
|
e|---------------2--------------------------3---------------------0------------|
B|-------------------3---------------------------3--------------------2--------|
G|-----------------------------------------------------------------------------|
D|-----------------------------------------------------------------------------|
A|-----------------------------------------------------------------------------|
E|-----------------------------------------------------------------------------|
Kryptonite
YEEEAAAAAAHHHH!!!!!!!!
Chorus Guitar 1 & 2 (Distorted)
B5
G5
A5
e|-------------------------------------------------------------------|
B|-------------------------------------------------------------------|
G|---4-4-4---4-4-4---4-4-4---4-4-4-------------------2-2-2---2-2-2---|
D|---4-4-4---4-4-4---4-4-4---4-4-4---5-5-5---5-5-5---2-2-2---2-2-2---|
A|---2-2-2---2-2-2---2-2-2---2-2-2---5-5-5---5-5-5---0-0-0---0-0-0---|
E|-----------------------------------3-3-3---3-3-3-------------------|
If I go crazy then will you still Call me Superman
B5
E5
F#5
e|-------------------------------------------------------------------|
B|-------------------------------------------------------------------|
G|---4-4-4---4-4-4---4-4-4---4-4-4-----------------------------------|
D|---4-4-4---4-4-4---4-4-4---4-4-4---2-2-2---2-2-2---4-4-4---4-4-4---|
A|---2-2-2---2-2-2---2-2-2---2-2-2---2-2-2---2-2-2---4-4-4---4-4-4---|
E|-----------------------------------0-0-0---0-0-0---2-2-2---2-2-2---|
If I m alive and well, will you be There holding my hand
B5
G5
A5
e|-------------------------------------------------------------------|
B|-------------------------------------------------------------------|
G|---4-4-4---4-4-4---4-4-4---4-4-4-------------------2-2-2---2-2-2---|
D|---4-4-4---4-4-4---4-4-4---4-4-4---5-5-5---5-5-5---2-2-2---2-2-2---|
A|---2-2-2---2-2-2---2-2-2---2-2-2---5-5-5---5-5-5---0-0-0---0-0-0---|
E|-----------------------------------3-3-3---3-3-3-------------------|
I ll keep you by my side with My superhuman might
B5
E5
F#5
e|-------------------------------------------------------------------|
B|-------------------------------------------------------------------|
G|---4-4-4---4-4-4---4-4-4---4-4-4-----------------------------------|
D|---4-4-4---4-4-4---4-4-4---4-4-4---2-2-2---2-2-2---4-4-4---4-4-4---|
A|---2-2-2---2-2-2---2-2-2---2-2-2---2-2-2---2-2-2---4-4-4---4-4-4---|
E|-----------------------------------0-0-0---0-0-0---2-2-2---2-2-2---|
Kryptonite

Outro Repeat 2x
Guitar 1 (Distorted)
e|---------------------------------------------------|
B|---------------------------------------------------|
G|*--------------------------------------------------|
D|*--------------------------------------------------|
A|---2---4---5---4---5---4---7---5---4---5---4---5---|
E|---------------------------------------------------|
|
|
|Guitar 2 (Distorted - Hold Chords in ()'s)
|
|
|
e|---------------------------------------------------|
B|---------------------------------------------------|
G|*--4---(4)---(4)---(4)-----9--(9)---7---(7)---(7)--|
D|*--4---(4)---(4)---(4)-----9--(9)---7---(7)---(7)--|
A|---2---(2)---(2)---(2)-----7--(7)---5---(5)---(5)--|
E|---------------------------------------------------|
woo woo woo___
Hold
e|------------------------------------------------------|-----------|
B|------------------------------------------------------|-----------|
G|-----------------------------------------------------*|--4---(4)--|
D|-----------------------------------------------------*|--4---(4)--|
A|---2---0---2---0---2---0------------------------------|--2---(2)--|
E|---------------------------0--0--0--000--2--2--2--222-|-----------|
|
|
|
e|------------------------------------------------------|-----------|
B|------------------------------------------------------|-----------|
G|---4---(4)---(4)---(4)-------------------------------*|--4---(4)--|
D|---4---(4)---(4)---(4)-----2---(2)---4---(4)---(4)---*|--4---(4)--|
A|---2---(2)---(2)---(2)-----2---(2)---4---(4)---(4)----|--2---(2)--|
E|---------------------------0---(0)---2---(2)---(2)----|-----------|
woo woo woo___
--------------Kryptonite - 3 Doors Down
Chords Used A - x02220
A5 - x022xx
Asus2 - x0220x
A/D - xx0220
Bm - 224432
B5 - x244xx
E5 - 022xxx
F#5 - 244xxx
G - 320033
G5 - 355xxx
Song Progression / Lyrics Intro
Verse 1 I took a walk around the world to Ease my troubled mind

I left my body laying somewhere In the sands of time


I watched the world float to the dark Side of the moon
I feel there is nothing I can do, yeah
Verse 2 I watched the world float to the Dark side of the moon
After all I knew it had to be something To do with you
I really don t mind what happens now and then
As long as you ll be my friend at the end
Chorus If I go crazy then will you still Call me Superman
If I m alive and well, will you be There holding my hand
I ll keep you by my side with My superhuman might...Kryptonite
Verse 3 You called me strong, you called me weak, But still your secrets I will
keep
You took for granted all the times I Never let you down
You stumbled in and bumped your head, if Not for me then you would be
dead
I picked you up and put you back On solid ground
Chorus If I go crazy then will you still Call me Superman
If I m alive and well, will you be There holding my hand
I ll keep you by my side with My superhuman might...Kryptonite
Solo
Chorus (Clean) If I go crazy then will you still Call me Superman
If I m alive and well, will you be There holding my hand
I ll keep you by my side with My superhuman might...Kryptonite
YEEEAAAAAAHHHH!!!!!!!!
Chorus If I go crazy then will you still Call me Superman
If I m alive and well, will you be There holding my hand
I ll keep you by my side with My superhuman might...Kryptonite
Outro