Вы находитесь на странице: 1из 11

Im Not Ashamed of the Gospel, Live

INTRO: tab by: Jeffrey Galuno (May 21, 2009 12:53PM)


legend: H=hammer
s=slide
~=play the string for tremolo
(8x)=hit th note 8 times
e----------------------------------------------------------|
B-13s15--12~-12--------------------13s15--12~---12---------|
G---------------12--11------------------------12--12H14-11-|
D----------------------------------------------------------|
A----------------------------------------------------------|
E----------------------------------------------------------|
e-----------------------------------------------------------|
B-13s15--12~-12--------------------13s15--12~---------------|
G---------------12--11------------------------12(8x)--14----|(8x)
D-----------------------------------------------------------|
A-----------------------------------------------------------|
E-----------------------------------------------------------|
Em
G
C
Am
Em
G
C
Am
e----------------------------------------------------------]
B-13-13--12-12--10-10--12-12~~-----13-13--12-12--10-10-----]w/ wah FX
G-------------------------------------------------------9-9] REPEAT 2X
D----------------------------------------------------------]
A----------------------------------------------------------]
E----------------------------------------------------------]
then just follow the chords (chords is from the courteousy of a guitarist from
brother)
Intro: C-G-D (6x)
Em-G-C-Am (4x) (suggested to play using power chords)
Verse 1:
Em G
C
Am
When You found me
Em G
C
Am
My whole world changed
Em G
C
Am Em G C Am
I'm redeemed by life
Verse 2:
Em G
C
Am
Let the earth see
Em G
C
Am
You are freedom
Em G
C
Am
Em
Turn my darkness to light

Am

Pre-chorus:
C
G
You welcomed me in
D
C
With open arms
G
D
Into unending life
CHORUS:
G
D
I'm not ashamed of the gospel Lord
Em
C
Your power, your Love has saved my soul now
G
D
Em
I'm alive You
C
I'm living the rising son.
Em G C
Am
I'm living the rising son.

Song:Break Free
Band: Hillsong United
Album: All of the Above
accuracy: psssh i dno you decide
Order: Verse 1/Pre-Chorus/Verse 2/Pre-Chorus/CHORUS/Verse 3/PreChorus/CHORUS/Bridge/CHORUS
Intro/guitar riff for most of the song
E-2-2-2-2-2-2-2-2-2-2-2-2-2-2----------------------------------------|
A-----------------------------5-5----5--------------5----5-----------|
D----------------------------------4----4--6-----------4-----4--6----|
G--------------------------------------------------------------------|
Verse 1
F#m
D
Would you believe me, would you listen if I told you that
F#m
D
There is a love that makes the way, it never holds you back
Pre-Chorus
F#m
So would you break free, would you break free
D
get up and dance, in His love
Verse 2
F#m
Who would have thought that
D
God would give his one and only Son
F#m
D
Taken a stand upon the cross to show his perfect love
Chorus
His love never ends, yeah.
A
D
F#m
There's no escaping the truth, there's no mistaking its you
D
God forever we'll get up and dance, get up and dance and praise you
A
D
F#m
There's no escaping your love, there's no mistaking your light
D
Across the world we will get up and dance, get up and dance and praise you
Verse 3
Now is the time to take this freedom that has come our way
Offer our lives to see the glory of His name
Bridge
E
F#m
Never, all our days
D
E
F#m
We are holy Lord, holding onto all your ways
D
E
We are holding on, holding on to all you've
F#m
D
said and you've done
E
F#m
D
We are holding on to your love
Now we will dance
Wont you break free, wont you break
Wont you break free?
eh thats it
the strumming is preety weird though so you have to listen closely to make it sounds work
may god be praised =D

Hillsong United
In your freedom(TAB)
AUTOR: Marty Sampson
ALBUM: Saviour King (2007)

intro y la estrofa solo se usa la cuerda e y g


intro:
e-3-------5---------7---------2
g-4-------6---------7---------2

e-3-------5---------7
g-4-------6---------7

estrofa:
e-3-------5---------7---------2
g-4-------6---------7---------2
Te busco, Dios de poder
e-3-------5---------7
g-4-------6---------7
me postro a ti quebrantado
e-3-------5---------7---------2
g-4-------6---------7---------2
ningun otro rey vino con humildad
e-3-------5---------7
g-4-------6---------7
para sanar mi alma mi corazon
pre coro:
g-4-4-4-6-6-6-6-6-11-11-11-6-6-6-6-6-6-6
No tengo nada ms que todo lo q tu me das
g-7-7-7-6-6-6-6-4-4-4-6-6-6-6-6no hay nada ms que importe para mi
coro:
b-7-7-7-7----------------------------------------------------g----9-9-9---------------------------------------------------d---------11-11-9-11-9-11-9-12-12-11-12-11-12-11-9-9-7-9-7-9-7
b-7-7-7-7----------------------------------------------------g----9-9-9---------------------------------------------------d---------11-11-9-11-9-11-9-12-12-11-12-11-12-11-9-----------Te amo Dios
Me Salvaste
te quiero solo a ti
eres todo para mi
estrofa II:es lo mismo q la primera pero ya se toca simultaneamente
oro a ti dios de paz
descanso en ti mis cargas
pre coro:
g-4-4-4-6-6-6-6-6-11-11-11-6-6-6-6-6-6-6
No tengo nada ms que todo lo q tu me das
g-7-7-7-6-6-6-6-4-4-4-6-6-6-6-6no hay nada ms que importe para mi
coro:
D A
Bm
Te amo Dios
G
Me Salvaste
D A
Bm
te quiero solo a ti
G
eres todo para mi
solo:
b-7-7-7-7--------------------------------------------------------

g----9-9-9--------------------------------------11-12-14-11-12-16
d---------11-11-9-11-9-11-9-12-12-11-12-11-12-11----------------b-7-7-7-7---------------------9----10----12----14----15------g----9-9-9---------------------------------------------------d---------11-11-9-11-9-11-9-11-------------------------------puente:

en
en
te
te

libertad vivere
tu libertad yo vivire
ofrezco devocion
ofrezco devocion

b-7-7-7-7----------------------------------------------------g----9-9-9---------------------------------------------------d---------11-11-9-11-9-11-9-12-12-11-12-11-12-11-9-9-7-9-7-9-7
b-7-7-7-7----------------------------------------------------g----9-9-9---------------------------------------------------d---------11-11-9-11-9-11-9-12-12-11-12-11-12-11-9-----------coro:
D A
Bm
Te amo Dios
G
Me Salvaste
D A
Bm
te quiero solo a ti
G
D
eres todo para mi
Ver.2
intro: G

Bm

D/F#

Bm

...

G
A
Bm D/F#
Te busco a Ti, Dios Consolador
G
A
Bm
Postrado estoy en humildad
G
A
Bm
Y no hay otro dios que pueda en mi sanar
G
A
Bm
A
Este pobre corazn y mi alma salvar

D/F#

PRE-CORO
Bm
A
D
A
No tengo nada ms que lo que me has dado t
Bm
A
G
A
D
y no hay nada ms que lo que has hecho en m
D
A
Bm
Te amo Dios
G
D
Me Salvaste a mi
A
Bm
Lo que soy es por ti
G
D
Lo que tengo es por ti
G
A
Bm
D/F#
Me postro a ti, Dios de Paz
G
A
Bm A
Mis cargas yo las pongo en ti.

Pre-Coro:
Coro:
Puente:
G
D/F#
Vivir en libertad
Bm
Vivir en libertad
D/F# G
Para darte adoracin
D/F# G
Para darte adoracin
Ver.3
Hillsong - In Your Freedom
(Saviour King album version - Marty Sampson)
Key: D
Intro:
G
A
G
A

Bm
Bm

D/F#
...

Verse 1:
G
A
I search for You
Bm
D/F#
God of strength
G
A
I bow to You
Bm
In my brokenness
G
A
Bm
D/F#
And no other king could have so humbly come
G
A
Bm
A
To save my soul and heal my heart
Pre-Chorus:
Bm
A
I have nothing more
D
A
Than all You offer me
Bm
A
There is nothing else
G
A
D
That's of worth to me
Chorus:
D
A
Bm
And I love You Lord
G
D
You rescue me
A
Bm
You are all that I want
G
D
You're all I need
Intro 2:
G
A
Bm

D/F#

Verse 2:
G
A
I pray to You
Bm
D/F#
God of peace
G
A
I rest in You
Bm
A
My cares released
Instrumental:
D/F#
A
Bm

Bridge:
G
D/F#
In Your freedom I will live
Bm
In Your freedom I will live
D/F#
G
I offer devotion
D/F#
G
I offer devotion
Difficult chord:
D/F# - 2 x 0 2 3 2
D/F# - 2 x 0 2 3 X
Ver.4
Tabbed by: Mark Larry S. Saquing
Title: In Your Freedom
Artist: Hillsongs
Album: Saviour King
Key: D
Intro:(Stum once)
G
A
Bm
D/F#
e|-x----------x-----------x------------x---|
B|-x----------x-----------x------------x---|
G|-4----------6-----------7------------2---|
D|-0----------0-----------0------------0---|
A|-0----------0-----------0------------0---|
E|-3----------5-----------7------------2---|
G
A
Bm .............
e|-x----------x-----------x---------------|
B|-x----------x-----------x---------------|
G|-4----------6-----------7---------------|
D|-0----------0-----------0---------------|
A|-0----------0-----------0---------------|
E|-3----------5-----------7---------------|
Verse 1:(Play the chords just like in Intro.
Strum also once.)
G
A
I search for You
Bm
D/F#
God of strength
G
A

I bow to You
Bm
In my brokenness
G
A
Bm
D/F#
And no other king could have so humbly come
G
A
Bm
A
To save my soul and heal my heart
Pre-Chorus:(Lightly strum)
G
A
Bm
D/F#
D
e|-x----------x-----------x------------x-----------x--|
B|-x----------x-----------x------------x-----------x--|
G|-4----------6-----------7------------2-----------11-|
D|-0----------0-----------0------------0-----------0--|
A|-0----------0-----------0------------0-----------0--|
E|-3----------5-----------7------------2-----------10-|
Bm
A
I have nothing more
D
A
Than all You offer me
Bm
A
There is nothing else
G
A
D
That's of worth to me
Chorus:(Strum)
D
A
Bm
G
e|--2---0---2----3---|
B|--3---2---3----3---|
G|--2---2---4----0---|
D|--0---2---4----0---|
A|--x---0---2----2---|
E|--x---x---x----3---|
D
A
Bm
And I love You Lord
G
D
You rescue me
A
Bm
You are all that I want
G
D
You're all I need
Intro 2:(Strum)
G
A
Bm
D/F#
e|-x----------x-----------x------------x---|
B|-x----------x-----------x------------x---|
G|-4----------6-----------7------------2---|
D|-0----------0-----------0------------0---|
A|-0----------0-----------0------------0---|
E|-3----------5-----------7------------2---|
Verse 2:
G
A
I pray to You
Bm
D/F#
God of peace
G
A
I rest in You
Bm
A
My cares released

Pre-Chorus:(Strum)
G
A
Bm
D/F#
D
e|-x----------x-----------x------------x-----------x--|
B|-x----------x-----------x------------x-----------x--|
G|-4----------6-----------7------------2-----------11-|
D|-0----------0-----------0------------0-----------0--|
A|-0----------0-----------0------------0-----------0--|
E|-3----------5-----------7------------2-----------10-|
Bm
A
I have nothing more
D
A
Than all You offer me
Bm
A
There is nothing else
G
A
D
That's of worth to me
Chorus:(Strum)
D
A
Bm
G
e|--2---0---2----3---|
B|--3---2---3----3---|
G|--2---2---4----0---|
D|--0---2---4----0---|
A|--x---0---2----2---|
E|--x---x---x----3---|
D
A
Bm
And I love You Lord
G
D
You rescue me
A
Bm
You are all that I want
G
D
You're all I need
Instrumental:
Guitar 1:(Strum)2x
D/F# A
Bm
G
e|--2----0---2----3---|
B|--3----2---3----3---|
G|--2----2---4----0---|
D|--0----2---4----0---|
A|--0----0---2----2---|
E|--2----x---x----3---|
Guitar 2:
D/F#
A
e|-------------------------------------------|
B|-------------------------------------------|
G|---9/11-11-9-11-11-9-11--------------------|
D|------------------------9/11-11-9-11-12-14-|
A|-------------------------------------------|
E|-------------------------------------------|
Bm
G
e|----------------------------------9p-|
B|------------------------11p----------|
G|-9/11-11-9-11-12-11-11p-----11p------|
D|-------------------------------------|
A|-------------------------------------|
E|-------------------------------------|
D/F#
A
e|------------------------------------------------|
B|------------------------------------------------|

G|--9/11-11-9-11-11-9-11--------------------------|
D|--------------------------9/11-11-9-11-12-11----|
A|---------------------------------------------12-|
E|------------------------------------------------|
e|--9~-10~--12~-14~-15~--|
B|-----------------------|
G|-----------------------|
D|-----------------------|
A|-----------------------|
E|-----------------------|
Bridge:(Strum lightly at first round)3x
D/F# A
Bm
G
e|--2----0---2----3---|
B|--3----2---3----3---|
G|--2----2---4----0---|
D|--0----2---4----0---|
A|--0----0---2----2---|
E|--2----x---x----3---|
G
D/F#
In Your freedom I will live
Bm
In Your freedom I will live
D/F#
G
I offer devotion
D/F#
G
I offer devotion
Chorus:(Strum)2x
D
A
Bm
G
e|--2---0---2----3---|
B|--3---2---3----3---|
G|--2---2---4----0---|
D|--0---2---4----0---|
A|--x---0---2----2---|
E|--x---x---x----3---|
D
A
Bm
And I love You Lord
G
D
You rescue me
A
Bm
You are all that I want
G
D
You're all I need

You are my Strength


Reuben Morgan
Key: G
Verse 1:
G
You are my strength
C
Strength like no other
G/B
Strength like no other
D
G
Reaches to me
G
You are my hope
C
Hope like no other
G/B
D
Hope like no other
G
Reaches to me
Chorus:
C
In the fullness of Your grace
Em
In the power of Your name
D/F# G
You lift me up
C
D
You lift me up
Verse 2:
G
Unfailing love
C
Stronger than mountains
G/B
D
Deeper than oceans
G
Reaches to me
Bridge:
C
G
D
Your love oh Lord
Em
C
G
D
Reaches to the heavens
C
G
D
Your faithfulness
Em
C G D
Reaches to the skies
(You may skip the G's in the Bridge to simplify it... This is my first tab, so
feel free
message or leave a comment with any corrections. It would be greatly appreciated.)

Verse 1:
G
You are my strength

C
Strength like no other
GD
Strength like no other
G
Reaches to me
G
You are my hope
C
Hope like no other
GD
Hope like no other
G
Reaches to me
Chorus:
C
In the fullness of Your grace
Em
In the power of Your name
DC
You lift me up
D
You lift me up
Verse 2:
G
Unfailing love
C
Stronger than mountains
GD
Deeper than oceans
G
Reaches to me
Bridge:
CGD
Your love oh Lord
Em C G D Em
Reaches to the heavens
CGD
Your faithfulness
CGD
Reaches to the sky
ALSO IN THE BRIDGE ADD Em AFTER THE "D" ON "YOUR FAITHFULNESS"