You are on page 1of 5

Title: FIVES

SubTitle: by Guthrie Govan


Music: Trascrizione a cura di Diego Budicin
Tempo = 140
Electric Guitar
Legend
L - tied note
x - dead note
h - hammer on/pull off
b - bend
s - slide
~ - vibrato
g - ghost note
> - accentuated note
t - trill
M - palm mute
. - staccato
P - popping (bass)
S - slapping (bass)
+ - tapping
W - wide vibrato
< - fade in
w - whammy bar
= - tremolo picking
v - brush up
^ - brush down
V - pick stroke up
n - pick stroke down
E
B
G
D
A
E

W
|--3L----------3L---|--3L----------3L---|--3L----------3L---|
|--3L----------3L---|--3L----------3L---|--3L----------3L---|
|--5L----------5L---|--5L----------5L---|--5L----------5L---|
|--5L----------5L---|--5L----------5L---|--5L----------5L---|
|--0L----------0L---|--0L----------0L---|--0L----------0L---|
|-------------------|-------------------|-------------------|

n V n
V n V n V
--3L----------3----|----------------------------------|
--3L----------3----|----------------------------------|
--5L----------5----|--------12s---7-----------9-------|
--5L----------5----|-----10----------5-----------7----|
--0L----------0----|--0-----------------7--8----------|
-------------------|----------------------------------|
n V n
V n V n V
n V n
V n V n V
----------------------------------|----------------------------------|
----------------------------------|----------------------------------|
--------12s---7-----------9-------|--------12s---7-----------9-------|
-----10----------5-----------7----|-----10----------5-----------7----|
--0-----------------7--8----------|--0-----------------7--8----------|
----------------------------------|----------------------------------|
n V
V n V n V
n V n
n V n V n V
----------------------------------|----------------------------------|
----------------------------------|----------------------------------|
--------12s---7-----------9-------|--8s----------10s---------12------|
-----10----------5-----------7----|-----6-----------8-----------10---|
--0-----------------7--8----------|--------8-----------10-11---------|

----------------------------------|----------------------------------|
n V n
n V n V n V
n V n
n V n n V n
----------------------------------|----------------------------------|
----------------------------------|----------------------------------|
--8s----------10s---------12------|--------------15-------12---------|
-----6-----------8-----------10---|--13-------------13-------10------|
--------8-----------10-11---------|-----11-------------11-------8----|
----------------------------------|--------9-------------------------|
n V n
n V n n V n
n V n
V n V n V
----------------------------------|----------------------------------|
----------------------------------|----------------------------------|
--------------15-------12---------|--------12s---7-----------9-------|
--13-------------13-------10------|-----10----------5-----------7----|
-----11-------------11-------8----|--0-----------------7--8----------|
--------9-------------------------|----------------------------------|
n V n
V n V n V
n V n
V n V n V
----------------------------------|----------------------------------|
----------------------------------|----------------------------------|
--------12s---7-----------9-------|--------12s---7-----------9-------|
-----10----------5-----------7----|-----10----------5-----------7----|
--0-----------------7--8----------|--0-----------------7--8----------|
----------------------------------|----------------------------------|
n V n
V n V n V
----------------------------------|
----------------------------------|
--------12s---7-----------9-------|
-----10----------5-----------7----|
--0-----------------7--8----------|
----------------------------------|
n
V
n
V
n
-----------------------------15----------------------------------15--------------13s15----------------------------------13----------------------------------12h
----------------------------------------------------------------------------------------------------------------------------------------------------------------------------------------------------------------------------------------------------------------------------------------------------------------------------V
V
-----------------------------------------------|
---------13h---12------------------------------|
---------------------14------------------------|
---------------------------------12------------|
-----------------------------------------------|
-----------------------------------------------|
n
V
n
V
n
------------------------------------------------------------------------------------------------------------15--------------------------------------------------14s16----------------------------------12-----------------------------------------------------------------------------------------------------------------12s
-----------------------------------------------------------------0--------------------------------------------------------------------------------------------V
-----------------------------------------------|

-----------------------------------------------|
-----------------------------------------------|
---------14s---12h---10------------------------|
---------------------------------0-------------|
-----------------------------------------------|
n
V
n
n
----------------------------------------------------------------|
----------------------------------------------------------------|
--------------12------------------------------------------------|
--9s----------------9h----------10h9s-7-----7-------------------|
----------------------------------------------------------------|
----------------------------------------------------------------|
n
n
n
V
----------------------------------------------------------------------------------------------------------------------------------------------------------------------------------------------------------------------------9-----------12h----------------------------------------------------10-----------------------------------------------------------------12------------------------------------------------------------------------------------------------------------------------------------------------------------------------------------------------------------------------------------------------------------------------------------------------------------------9s----------------------------------14--------------------------------------------------------------------------------------------------------------------------------------------------------------------------------------------------------------------------------------------------------V
----------------------15------------------------------------------------------------------------------------------------------------------------------------------------------------------------------------------------------------------------------------------------------------------------------------------------------------------------------------------------------------------------------------------------------------------------------------------------------------------n
V
-----------------------------------------------------------15---------------------------------------------------------------------------------------------------------------12-------14--------------------------------------------------------------------------------------------------------------------------------------------------------------------------------------------------------------------------------------------------------------------------------------------------------------------------------------------------------|
-----------------------------------------------------|
-----------------------------------------------------|
-----------------------------------------------------|
-----------------------------------------------------|
-----------------------------------------------------|
n
V
----------------------------------------------------------------------------------------------------------------------------------------------------------------12s----------------------------------------------------------------------------------------------------------------------------------------------------13-----------------------------------------------------------------------------------

-------------------------------------------------------------------------------n
---------------------------------------------------------------------------------------------------------------------------------------------------------------------------------------------------------------------------------------------------------------------------------------------------------------13s------15----------------------------------------------------------------------------------------------------------------------------------------------------------------V
---------------------------------------------------------------------------------------------------------------------------------------------------------------------------------------------------------15s-------------------------------------------------------------------------------------------------------------------------------------------------------------------------------------------------------------------------------------------------------------------------------------------|
-------------|
-------------|
-------------|
-------------|
-------------|
n
V
n
----------------------------------------------------------------------------------------------------------------------------------------------------------------12s---------------------------------8-----------------------------------8--10---------------------------------------------------------------------------------------------------------------------------------------------------------------------------------------------------------------------------------------------V
-----------------------------------------------|
---------------------11------------------------|
-----------------------------------------------|
-----------------------------------------------|
-----------------------------------------------|
-----------------------------------------------|
n
n
n
-----------13-------18b-----------|
--11L11b--------------------------|
----------------------------------|
----------------------------------|
----------------------------------|
----------------------------------|
n V n V n V n V n V n V n V n V
--------------20-16-------------13-16-15----13------------------|
--------------------20-16-13-14----------16----16-15-14-13------|
-----------------------------------------------------------15---|
----------------------------------------------------------------|
----------------------------------------------------------------|
----------------------------------------------------------------|
n
V
n
-----------------------------15-------------------------------------------------

--13s15----------------------------------13----------------------------------------------------------------------------------------------------------------------------------------------------------------------------------------------------------------------------------------------------------------------------------------------------------------------------------------------------------------V
-----------------------------------------------|
---------------------------------15------------|
-----------------------------------------------|
-----------------------------------------------|
-----------------------------------------------|
-----------------------------------------------|
n
n
V n
n
V n
n
V
----------------------------------|----------------------------------|
-----------13----15----------13L--|--13-15----------13----15---------|
--14L14b------------14L14b--------|--------14L14b------------14b-----|
----------------------------------|----------------------------------|
----------------------------------|----------------------------------|
----------------------------------|----------------------------------|
n V V n
--15---------------------------------------------|----||
-----13------------------------------------------|----||
--------12-14------------------------------------|----||
-------------------------------------------------|----||
-------------------------------------------------|----||
-------------------------------------------------|----||