You are on page 1of 1

Centro Cultural Folklórico de la Universidad Nacional de Ingeniería FOLKUNI

RAMIS
Huayño Puneño
Augusto Portugal Vidangos

Tablatura para charango transcrita por: : Juan Francisco Martinez Atahua

----0-2-3-2-5-3-2-0----0-2-0-3-2-0----------0---2-0-----------------3-----------------------------
--------------------------------------------------------------------2---2-----------2-2-2---2---0--0---
--ْ-------------------------------------------------------------------------------------------------- 2----
--ْ-----------------------2---------------2---0-2---2------2-0----------2----------------2-----------2-
----------------------------------------------------------------------0-----------0-----------------------

A
-----------------------0-------------------0---2-3-0------- 0-2-3-- 2-0------------0------------------
---2-2-0-----------2--------------2-4-6-------------5-2-----------------5--3-3-3---3-2-----0-------
-------------2-0----------ْ-------ْ-------------------------------------------------------------------3-2--
---------------------------ْ-------ْ-------------------------------------------------------------------------
-0--------0------0---------------------------------------------------------------------------------------

1.- 2.- B
----------------2-3-2-3-5----------------0-2----------------3----5--7--5----0--2---3---7-5-------
-0--------------------------------0-2-------------------------------------------------------------------
---3-2-0-----------------------3---------------ْ--------------------------------------------------------
---------------------------------------0-2------ْ--------------------------------------------------------
---------------------------------------------------------------------------------------------------------

-3-2-3-4---5-3-2---5-3-2-0---------------0-2-----3---5--7--5----0--2----3---7-5---3-2-3-4---
-------------------------------------0-2----------------------------------------------------------------
-----------------------------------3---------------------------------------------------------------------
------------------------------------------0-2-----------------------------------------------------------
---------------------------------------------------------------------------------------------------------

C 1.-
-5-3-2--5-3-2-0-------- 0-0--2-3---2-0-----------0--------------------------------------------------
---------------------------------------------5-3-3-3----3-2----0-------0--------------------------0---
-------------------------ْ-------------------------------------------3-2-----3-2-0--ْ-------2-3-2-3-----
-------------------------ْ--0-0--2-4-------------------------------------------------ْ---------------------
-----------------------------------------------------------------------------------------------------------

REPETIR A B C sin 1.-

FINALIZAR CON I
Centro Cultural Folklórico de la Universidad Nacional de Ingeniería FOLKUNI
Unidad de Trabajo de Música
http://www.folkuni.com