Вы находитесь на странице: 1из 22

Contents

Chote chote bhayiyon ke bade bhaiyya...............................................................................1


Dulhan ki saaliyon O...........................................................................................................2
Kabootar....ja....ja....ja..........................................................................................................4
Aaj hamaare dil mein...........................................................................................................6
Ye mosum ka jaadu hai meethava........................................................................................7
O O Jaane Jaane From Pyar Kiya Toh Darna Kya.............................................................10
Nenne Nenne' form Akash.................................................................................................13
Ninindale Ninidale - Milana..............................................................................................13
Minchaagi neenu baralu.....................................................................................................14
Hum Tere Bin e Ab Reh Nehi Saak Te..............................................................................15
Apne karam ki kar adayein..e.e.e.......................................................................................16

Chote chote bhayiyon ke bade bhaiyya


INTRO D |--7-7-5-6-7-7-5-6-7-7-5-6-7--7-----5-6--------A |---------------------------------7--------------D |--7-7-5-6-7-7-5-6-7-7-5-6-7-------------------B |------------5------------------5----------------G |--6-6-5-6------6-6--6-6-5-6------6-------------B |------------5------------------5-----------------G |--6-6-5-6------6-6--6-6-5-6------6--6-4-2------G |--2-2-2-4-5-4-5-4-2------------------------------(4 TIMES )
B |------------------5------------------------------G |--2-4-6-6-7-6-4-----2-2-2-----------------------B |------------------5-------------------------------G |--2-4-6-6-7-6-4-----2-2-2-----------------------Chote chote bhayiyon ke bade bhaiyya
B |---------------2-2---------------2----------------G |-----2-2-4-4-------4-4-2-2-4-4-------------------D |--2-----------------------------------------------Hai hai hai hai
A chord 4 times
Aaj banenge kisi ke saiyaan
B |---------------2-2--------------------------------G |-----2-2-4-4--------4-4-2-4-2-2------------------D |--2------------------------------------------------Hai hai hai haihai
A chord 5 times
Dhol nagade baje sehnaiyaan
SAME AS LINE Chote chote bhaiyon ke

Jhoom ke aai mangal ghadiyan


SAME AS LINE Aaj banenge kisike
MUSIC B |-----2-2-----2-2-2-3-3-2---------------------------G |---------------------------4-----------------------D |--2-------2----------------------------------------B |---------------------3-2---------------------------G |-----4-4-----4-4-4-------4-2----------------------D |--2-------2----------------------------------------G |-----2-2-0-2-----2-2-0-2-----2-2-0-2--------------D |--2-----------2------------2-----------------------B |-------2-3-5---------------------------------------G |--2-4----------------------------------------------STANZA :Bhabhi ke sang holi mein
B |--4-5-5-4-5-7-7-5-4-5-4---------------------------G |--------------------------6-------------------------Rang gulaal udayenge
B |--4-5-5-4-5-7-7-5-4-5-4---------------------------G |--------------------------6------------------------Aayegi jab jab diwali
B |--7-5-5-4-4----------------------------------------G |-------------6-6-7-7-6-4---------------------------Milkar deep jalayenge
B |-----3-3-2-------2----------------------------------G |--4---------4-4-----4-2-2--------------------------MUSIC G |--2-2-2-4-4-5-5-4-4-2------------( 3 TIMES )
G |--4-2---------------------------------------G |--2-2-2-4-4-5-5-4-4-2-------------(3 TIMES )
B |----------------------------------------------------5-----G |-----2-2-2-2-4-5-4-2--------4-4-4-4-5-7-5-4-2-2--------D |--2--------------------5--5-------------------------------G |-----2-2-2-2-4-5-4-2--------4-4-4-4-5-7-4-2-------------D |--2--------------------5--5-------------------------------B |--5-6-5-3-----3-3-3-5-3-------3-5-3----------------------G |-----------4--------------4-4---------4-4-2-2-------------B |-------2-3-5--------------------G |--2-4----------------------------

Dulhan ki saaliyon O

Dulhan ki saaliyon O hare dupatte waaliyon


G |----------------------9-7-7------------------------------D |------5-7-9-9-9-9----------9-7-5-7-7------------------A |--7-----------------------------------------------------Dulhan ki saaliyon O hare dupatte waaliyon
G |----------------------9-7-7------------------------------D |------5-7-9-9-9-9----------9-7-5-7-7------------------A |--7-----------------------------------------------------Joote de do paise le lo
D |--5-4-----------5-4------------------------------------A |--------5-7-7---------5-7-7----------------------------Joote de do paise le lo
D |--5-4-----------5-4------------------------------------A |--------5-7-7---------5-7-7----------------------------Hey hey hey hey
Em CHORD 4 TIMES
Dulhan ke devar tum dikhlao na yu tevar
G |----------------------9-7-7------------------------------D |------5-7-9-9-9-9----------9-7-5-7-7------------------A |--7-----------------------------------------------------Dulhan ke devar tum dikhlao na yu tevar
G |----------------------9-7-7------------------------------D |------5-7-9-9-9-9----------9-7-5-7-7------------------A |--7-----------------------------------------------------Paise de do joote le lo
D |--5-4-----------7-5-4----------------------------------A |--------5-7-7-----------5-7-7--------------------------Paise de do joote le lo
D |--5-4-----------5-4------------------------------------A |--------5-7-7--------5-7-7-----------------------------Joote do paise lo joote do paise lo
D |--5-4-------------5-4----------------------------------A |--------5-7-7-7---------5-7-7-7------------------------MUSIC :A |--7-5------5-7-8--8-7-5-7-7-7----7-5------5-7-8--8-7-5-7-7-7-------e |--------7----------------------------------7-----------------------------B |-------------------------------------6----------------------------------G |----------------------------5------------9------------------------------D |--7-9-7-7-7--7-9-7-7-7-------7-------------7-9-10-12-10-9-10-9-7-----G |-------------------------------5-4--------------------------------------D |--7-9-7-7-7--7-9-7-7-7--7---------7-6-6-----------------------------A |--7-5------5-7-8--8-7-5-7-7-7----------------------------------------e |--------7-------------------------------------------------------------A |--7-7-7-7-8-7-5-------5--7-7-7-7-8-7--------------------------------e |-------------------7--------------------------------------------------*************Then E of middle octave to E of higher octave slide on all
WHITE keys ( For piano, keybaord & synth. players )****************

A |--7-7-7-7-8-7-5-------5--7-7-7-7-8-7--------------------------------e |-------------------7--------------------------------------------------*************Then E of higher octave to E of middle octave slide on all


WHITE keys ( For piano, keybaord & synth. players )****************
Hey hey hey hey
Em CHORD 4 TIMES
STANZA :Aji note gino ji joote lao zidd chodo ji joote lao
D |--5-5-5-----------------------5----------------------------------------A |----------8-7-7--5-5-7-7-7-------8-7-7--5-5-7-7-7--------------------Fraud hai kya hum Tum hi jaano Akdoo ho tum jo bhi maano
A |--8-8-8-8--7-7-8-8-8--7-7-7-7--5-5-7-7-7-----------------------------Jo bhi maano jo bhi maano
A |--5-5-7-7-7--5-5-7-7-7-------------------------------------------------RUN :G |------------------9-7-5-4-----------------------------------------------D |------5-7-9-10--------------5-------------------------------------------A |--7------------------------------7---------------------------------------Aji baat badhegi badh jaane do maang chadhegi chad jaane do
D |--5-5-5-----------------------5----------------------------------------A |----------8-7-7--5-5-7-7-7-------8-7-7--5-5-7-7-7--------------------Pado na aise pehle joote pehle paise pehle joote
A |--8-8-8-8--7-7-8-8-8--7-7-7-7--5-5-7-7-7-----------------------------Pehle joote
A |--5-5-7-7-7-------------------------------------------------------------

Kabootar....ja....ja....ja
......Kabootar....ja....ja....ja
G |--------------------------2--------------------------------D |--4-2---------2----4---------5---------------------------A |--------4--------------------------------------------------......Kabootar....ja....ja....ja
D |--5-4-2-------4----4----4---------------------------------

......Pehle....pyar....ki.....pehli......chitthi
G |--4-6-----4-4-----4----4-6-4----4-4----------------------

FILLER :E |-------------------3-2-----------------------------------B |----------3----------------------------------------------G |--4-----------4------------------------------------------D |------3---------------------------------------------------

HUMMING :B |------2-3-5--------5-3-2---------------------------------G |--4-----------6------------4-------------------------------

......Pehle....pyar....ki.....pehli......chitthi
G |--4-6-----4-4-----4----4-6-4----4-4----------------------

......Saajan.........ko........de.....aa
B |------3-3p2----2----------------------------------------G |--4-----------------4----4-3----3------------------------

STANZA :......Unse....kehna....jab....se....gaye.....wo
B |--2-----------------2------------------------------------G |-----3----4-3-------------3----3-4------3---------------

......Main....to....adhoori....lagti.....hoon
B |--2------------------------------------------------------G |----------4----3-3-3-----1-1-----3----------------------

......In....hothon....pe....chup.....ki....lagi... .hai
B |--2---------------------2--------------------------------G |-------3-4-------3--------------3----3-4----3-----------

......Na....roti.....na......hansti....hoon
B |--2-------------------------------------------------------G |--------4-3-----------4-4------4------------------------D |----------------6------------------------------------------

......Bhool....hui.....jo....unhe....sataya
G |--6-7-----6-6----6----6-7-----6-6-6--------------------

HUMMING :B |---------6------------------------------------------------G |--6-7------7-9-7-6--------------------------------------......Bhool....hui.....jo....unhe....sataya


G |--6-7-----6-6----6----6-7-----6-6-6-------------------......Kaisa...........paap.....kiya
B |------3-3-2----2-----------------------------------------

G |--4---------------4-4----3-3----------------------------

......Kabootar....ja....ja....ja
G |--------------------------2--------------------------------D |--4-2---------2----4---------5---------------------------A |--------4--------------------------------------------------......Kabootar....ja....ja....ja....ja
G |--------------------------6----3---------------------------D |--5-4-2-------4----4--------------------------------------ERNAV THIS HUMMING AND MUSIC IS ALSO USED IN THE SONG BUT AS I DON'T REMEMBER
EXACT IN WHICH PART OF SONG HUMMING :G |--------4--6-7-6-4-3------------4-3------------------D |--4-5-------------------2-4-5---------5-4-4-----------

MUSIC :G |---------------------------------------------4p6--4p6------D |--4-4-4-4-5-4--2--------2--4-4-4-4-5-4------------------A |----------------------4---------------------------------------

Hum aapke hain Kaun


- Salmaan plays this over and over on his mandolin throughout the movie....
NOTE:: ( the notes at the end of each line are not listed as excate times so play it as many times as
u think would sound good)
e-12--14-15-14-12--14-15-14-12---14-14-14-14-14-14-14-14---e-12--14-15-14-12--14-15-14-12---12-12-12-12-12-12-12-12---e-0--2-3-2-0--2-3-0--2-2-2-2-2-3-3-3-3-3-2-2-2-2-2-2---------e-0--2-3-2-0--2-3-0--0-0-0-0-0-0-0-0-0-0----------------------Aziz
Life Sux and U Die!!!

Aaj hamaare dil mein


REQ. BY - ERNAV
Movie - Hum aapke hain kaun?
Singer - Lata Mangeshkar & Kumar Sanu
Aaj hamaare dil mein
D |--7-7-7-6-6-4-4-4-----------------------------------------------F#m CHORD 3 TIMES

Aaj hamaare dil mein ajab ye uljhan hai


D |--7-7-7-6-6-4-4-4--4-4-4-4-6-6-7-7-6--------------------------Gaane baithe gaana saamne samdhan hai
D |--7-7--7-6-6-4-4-4-------7-7-6--6-4-4-4-----------------------A |------------------------6-------------------------------------------Hum kuch aaj sunaayein ye unka bhi mann hai
D |--6-7--7-7-6-6-4-4-4--4-4-4-4-6-6-7-7-6-----------------------Gaane baithe gaana saamne samdhan hai
D |--7-7--7-6-6-4-4-4-------7-7-6--6-4-4-4-----------------------A |------------------------6-------------------------------------------STANZA :Kaanon ki baaliyaanchand suraj lagein
G |--6-6-6--6-6---------6-6-6-6----------------------------------D |----------------4-7--------------4-3-4--------------------------Ho....Kaanon ki baaliyaanchand suraj lagein
G |--6----6-6-6--6-6---------6-6-6-6-----------------------------D |----------------------4-7--------------4-3-4--------------------Ye banaras ki shaadi khoob janchey
Kaanon ki baaliyaanchand suraj lagein
G |--6-6-6--6-6---------6-6-6-6----------------------------------D |----------------4-7--------------4-3-4--------------------------Raaj ki baat batayein
D |--7-7-7-6-6-4-4-4-----------------------------------------------F#m CHORD 3 TIMES
Haan....Raaj ki baat bataayein Samdhiji ghayal hain
D |--7----7-7-7-6-6-4-4-4--4-4-4-4-6-6-7-7-6-----------------------Aaj bhi jab samdhan ki khanakti paayal hai
D |--7-7-7-6-6-4-4-4---------7-7-6--6-4-4-4------------------------A |-----------------------6-6---------------------------------------------

Ye mosum ka jaadu hai meethava


Movie - Hum aapke hain kaun?
Singer - Lata mangeshkar & S. P. balasubramaniyam
.................................................. ..
D |--4-4---------4-4---------4-4---------4-4------------A |--------4-4---------4-4---------4-4---------4-4------10 9 8 7 ...............
D |--6-6--------6-6---------6-6---------6-6-------------A |--------6-6--------6-6---------6-6-------------------FILLER :E |--7-6-4--------7-6-4----------------------------------B |----------6-------------6------------------------------REPEAT TWICE

6 5 4 3 ................
D |--6-6--------6-6---------6-6---------6-6-------------A |--------6-6--------6-6---------6-6-------------------FILLER :E |--7-6-4--------7-6-4----------------------------------B |----------6-------------6------------------------------REPEAT TWICE
2 1 lights start have fun
D |--6-6--------6-6---------6-6---------6-6-------------A |--------6-6--------6-6---------6-6-------------------RUN :B |--7-6-4----------------------------------------------G |-----------6-4-3-1-----------------------------------D |----------------------4-------------------------------MUSIC :D |--4-4-4-4--4-4-4-4--4-4-4-4--4-4-4-4-----------------**ERNAV as you are synth. player play this line like this, hold F# key & Press
F key 8 times then press G# key once and again press F8 times, Keep holding
F# key during this process( when you play song on Accordian, Organ, Harmonica
etc )**
Thandi thandi purvaiyya mein Udti hai chunariya
D |--4-4-6-6-4-4---------4-4-6-6-4-4-4-------------------A |-----------------4-4------------------------------------Hey dhadke mera jiya raama baali hai umarriya
G |--6-----------------------------------------------------D |------4-4-6-6-4-4---------4-4-6-6-4-4------------------A |---------------------4-4--------------------------------Dil pe
B |------2-2-----------------------------------------------G |--3-----------------------------------------------------FILLER :B |--2-4-2-4-------2-4-------------------------------------G |------------3----------3---------------------------------Nahi kaboo
B |--2----------2-2----------------------------------------G |------3--3----------------------------------------------FILLER :B |--2-4-2-4-------2-4-------------------------------------G |------------3----------3---------------------------------Kaisa
G |------4-4------------------------------------------------D |--6------------------------------------------------------FILLER :B |------2------2----------2-------------------------------G |--4------4------1--4-------1----------------------------Ye Jadoo
B |--2----------2-2-----------------------------------------

G |------3--3----------------------------------------------MUSIC :G |------6-4-3---------------------------------------------D |--4-----------6-4-3-------------------------------------REPEAT 3 TIMES


D |--4-4-------------(You can also use F# chord twice here instead of it)
Ye mausam ka jadoo hai mitwa
G |----------3----------4-----------6------------------------D |------4-------4-6-------6-8-8----------------------------A |--4-------------------------------------------------------Na ab dil pe kaboo hai mitwa
G |----------3----------4-----------6------------------------D |------4-------4-6-------6-8-8----------------------------A |--4-------------------------------------------------------Naina jisme kho gaye deewane hum ho gaye
G |--6-4-3-------------3-4-3--------------------------------D |----------6-4-4-4-----------6-4--4-6-4-3-----------------Nazaara ye harsoo hai mitwa
D |---------------------3-3----3-4-6-4----------------------A |--4--4-6-6----6--6---------------------------------------MUSIC :D |--4-6-3-4--------3---------------------------------------A |-------------6--------------------------------------------D |---------------------3-3----3-4-6-4----------------------A |----4-6-6----6--6-----------------------------------------HUMMING :G |--3------3-----------------------------------------------D |------6------6-4------------------------------------------Ye mausam ka jadoo hai mitwa
G |----------3----------4-----------6------------------------D |------4-------4-6-------6-8-8----------------------------A |--4-------------------------------------------------------MUSIC :G |--------1-2-1-------1-2-1-------1-1----------1-2-1-------1-2-1----D |--3-4-----------4------------4---------3-4------------4-----------4-4-4----REPEAT TWICE
Sehri babu ke sang mem gori gori
D |--4-4-6-6-4-4---------4-4-6-6-4-4-4-------------------A |-----------------4-4------------------------------------Hey aisi laage jaise chanda ki chakori
G |--6-----------------------------------------------------D |------4-4-6-6-4-4---------4-4-6-6-4-4------------------A |---------------------4-4--------------------------------STANZA :Phoolon kaliyon ki bahaarein chanchal ye hawaon ki pukaare
B |--------------4--4-------------------------2-2-------------G |--6-3--3-4-----------4-1--3-3-1--1-1-3----------4-3-------

FILLER :B |-------------2-2-----------4-4--------------2--------------G |--3------3---------4-3-4---------3-1-3-4--------4-3-------D |------4-----------------------------------------------------F# CHORD


Phoolon kaliyon ki bahaarein chanchal ye hawaon ki pukaare
B |--------------4--4-------------------------2-2-------------G |--6-3--3-4-----------4-1--3-3-1--1-1-3----------4-3------Humko ye shaam kahein ki tham ke yahan ghadiyan gujaare
B |--------------4--4-------------------------2-2-------------G |--6-3--3-4-----------4-1--3-3-1--1-1-3----------4-3------Pehle kabhi to na humse Batiyate the aise phulwa
B |--2-2------------------------------------------------------G |--------3-4-4-------3-3-------4-4-------3--3--------------D |-----------------6--------3----------6----------3-4-6-4----Ye mausam ka jadoo hai mitwa.................Mitwa
G |----------3----------4-----------6----------6--------------D |------4-------4-6-------6-8-8---------8-8------------------A |--4---------------------------------------------------------Na ab dil pe kaboo hai mitwa
G |----------3----------4-----------6------------------------D |------4-------4-6-------6-8-8----------------------------A |--4-------------------------------------------------------Naina jisme kho gaye deewane hum ho gaye
G |--6-4-3-------------3-4-3--------------------------------D |----------6-4-4-4-----------6-4--4-6-4-3-----------------Nazaara ye harsoo hai mitwa
D |---------------------3-3----3-4-6-4----------------------A |--4--4-6-6----6--6---------------------------------------MUSIC :D |--4-6-3-4--------3---------------------------------------A |-------------6--------------------------------------------D |---------------------3-3----3-4-6-4----------------------A |--4--4-6-6----6--6---------------------------------------HUMMING :G |--3------3-----------------------------------------------D |------6------6-4------------------------------------------Ye mausam ka jadoo hai mitwa
G |----------3----------4-----------6------------------------D |------4-------4-6-------6-8-8----------------------------A |--4-------------------------------------------------------MUSIC :G |-------3--------3--3-3-4-3---------------------------3----------D |------------------------------6------6------6--6-6-------6-4----A |--4--------4----------------------4------4-----------------------B |------3-2----------2------2------------------2------2--------------G |--3---------3--3-------3------3---------3------3------3------------

D |-----------------------------------4-6---------------------6-4-4---MUSIC :G |--------1-2-1-------1-2-1-------1-1----------1-2-1-------1-2-1----D |--3-4-----------4------------4---------3-4------------4-----------4-4-4----REPEAT TWICE

O O Jaane Jaane From Pyar Kiya Toh Darna Kya

The Guitar part..


E|--------------------------------------------------|
B|----------5--3-5-1------------3-3---0----0--------|
G|--2--2-2------------------------------2----2------|
D|-----------------------------------------------0--|
a a a e d e c, d d b a b a g
E|--------------------------------------------------|
B|------0-0-0--0-------------5---3-5--1-3--0-1------|
G|-0--0--------------2--2-2---------------------2---|
D|--------------------------------------------------|
g g b b b b, a a a e d e c d b c a
================================================== ===
E|--------------------------------------------------|
B|--1--1-0----0-------------3-3----0-----0----------|
G|---------2----1--------------------2-----2--0-----|
D|--------------------------------------------------|
ccbabcddbabag
o o jaane jaana dhoonde tujhe deewaana
E|--------------------------------------------------|
B|----0-0-0-0--0-0-5--------5-5-0-1-1-0-------------|
G|-0------------------------------------2-----------|
D|--------------------------------------------------|
gbbbbbbeeebccba
sapno mein roz aaye aa jindagi mein aana
================================================== ===
E|----0---------------------------------------------|
B|------1-----3--0-------------0--1-----------------|
G|-2--------2---------0-0---2--------2--------------|
D|--------------------------------------------------|
aecadbggabca
Mera khwab mere khayalon ki rani
gabba
E|----------0---------------------------------------|
B|------1-----3-3------------0--1-------------------|
G|-2--2--------------0-0--2--------2----------------|
D|--------------------------------------------------|
aaceddggabca
Kisi din banegi hamari kahani
E|-0--0-2---2--0------------0---0-------------------|
B|---------------3----3---3--------3--1-------------|

G|--------------------------------------------------|
D|--------------------------------------------------|
e e f# f# e d d d e e d c
Ai mere bekhudi yeh kasam maine lee
E|--------------------------0-------0-----0-----------|
B|-0-----0----1----0---1-3--------3-----3---3--1--0---|
G|----2---------2-----------------------------------2-|
D|----------------------------------------------------|
babcabcdedededcba
pyaar mein ek din meri jaan tujhe hai paana
o o jaane jaana dhoonde tujhe deewaana

E---------------------------------------------------------------B----------------------0--1-------------------------------------G----------------0--1-------------------------------------------D----------2--3-------------------------------------------------A----3--4-------------------------------------------------------E---------------------------------------------------------------Sa Ri Ga Ma Pa Dha Ni Sa
Version-2
E---------------------2--3--------------------------------------B---------------2--4--------------------------------------------G---0--2--4--5--------------------------------------------------D---------------------------------------------------------------A---------------------------------------------------------------E---------------------------------------------------------------Sa Ri Ga Ma Pa Dha Ni Sa
Version-3
E---------------------2--3--------------------------------------B---------------3--4--------------------------------------------G---------4--5--------------------------------------------------D---5--6--------------------------------------------------------A---------------------------------------------------------------E---------------------------------------------------------------Sa Ri Ga Ma Pa Dha Ni Sa

-E--------------------------------------------------------------B---------------------3-5-3------------------------------------G-----4-------4----4---------4-2-----2-----2------------------D--2-------2---------------------5-2------------------------------Bare----bare---andada--chelvina---tharee--------------------G-----2--------2-----------2--4--2-----------------------------D--2--------2--------2--5-----------5--2--0--5------5-------------Bare-----bare-----olavinaaaa--chilumeya---dhaaareee---------B-------------------3-5-3------3--------------------------------G--4-4-2--4-2------------4---4---4-2---------2-----------------D-------------5-2---------------------5-2-5------------------------Kanina--saneya--swagata---mareyalaaaaaaare-----------------B--------------------3-------------------------------------------G------------2--------4-----------2-4-2--2--4-------------------D--5--5-2--5--5-2------5------2-5------5--------------------------Chenduti--melinaa--hoonage---mareyalaaaaaaree----------------B--3-3-2-3--3-2---5--5-----2-3-5-3-2--2-3-----------------------G-----------------------4-------------4---------------------------

----Rupasirambeya--sangava--thoreyalaaaaare----------------------E------------------3--2-3----2-3-2---------2----------------------B--5---3--5-5-3---------------------5-3--5---5-----------------------Mauna-gauria---mohava---kaibida--laaaaaaaare------------------E--3----2-----------2---------------------------------------------B---------5-3-----3--------5-3------------------------------------G------------------------------4--------------------------------------Baaa-reeee-----baaaaaa-reeee----------------------------------B----3-5-3---------------------------------------------------------G--4-------4-2----2--------2------------2-4-2---------------------D--------------5-2-------------------2-5-------5-2-0-5-------5-------Andada--chelvnataaaaaare----olavina-cheluvina-dhaaaaare-----

Nenne Nenne' form Akash..


Enjoy Maadi..!
e---------------------------------b---------------------------------g-------9-7-----------7---------d----7------10-9-910--9-------a--------------------------10------e--------------------------------- Play Twice
e----------------------------------------b----------------------------------------g-------------------------------7-------d---------777--777--7-9-10----9----a---7-10----------------------------10e----------------------------------------- Play Twice
e---------------------------------b---------------------------------g----------------------------d-----10-9-7-----------------7--a---7-------------8----10--------e----------------------------------e---------------------------------b---------------------------------g-------9-7-----------7---------d----7------10-9-910--9-------a--------------------------10------e--------------------------------- Play Twice

Ninindale Ninidale - Milana


Intro...
E|---------------------------------|-----------------------A|---------------------------------|-----------------------D|---------------------------------|-----------------------G|---------------------------------|--------------10-11-10-B|8-9--8-9---8-9--8-9-------------------11-99-8-9----------E|---9----9-----9----11---99-13-11-99-8--------------------Intro.. He hee.. Thana naa na

E|---------------------------------|-------------------A|---------------------------------|-------------------D|11---------11---------11-11---11-11-10-10-11---------G|---10-88------10-88---------88-----------------------B|-----------------------------------------------------E|-----------------------------------------------------Ninindale... Kanasondhu...
E|---------------------------------|-------------------A|---------------------------------|-------------------D|11---------11-----------11-11---11-11-10-10-11-------G|---10-8------10-10-8---------88----------------------B|-----9-----------------------------------------------E|-----------------------------------------------------Ninindale... Manasindhu...
E|---------------------------------|-------------------A|---------------------------------|-------------------D|-----------------------------------------------------G|------10--------10--------10-------------------------B|9-9-8----8--9-8----8--9-8----8-----------------------E|-----------------------------------------------------E edheyalli....
E|---------------------------------|-------------------A|---------------------------------|-------------------D|-----------------------------------------------------G|-------------------10-11-10--------------------------B|9-9------11-99-8-9-----------------------------------E|---999-8---------------------------------------------Nannedhrulli...
E|---------------------------------|-------------------A|---------------------------------|-------------------D|-----------------------------------------------------G|------10--------10--------10-------------------------B|9-9-8----8--9-8----8--9-8----8-----------------------E|-----------------------------------------------------Ninna Thutiyalli....
E|---------------------------------|-------------------A|---------------------------------|-------------------D|-----------------------------------11-10-------------G|-------------------10-11-10-8-10-8-------------------B|9-9------11-99-8-9-----------------------------------E|---999-8---------------------------------------------Na ninthalle...
E|---------------------------------|-------------------A|---------------------------------|-------------------D|11---------11---------11-11---11-11-10-10-11---------G|---10-88------10-88---------88-----------------------B|-----------------------------------------------------E|-----------------------------------------------------E mayege...
E|---------------------------------|-------------------A|---------------------------------|-------------------D|11---------11-----------11-11---11-11-10-10-11-------G|---10-8------10-10-8---------88-----------------------

B|-----9-----------------------------------------------E|------------------------------------------------------

Minchaagi neenu baralu


E9-10-5-5-5-3-3-6
E8-6-6-5-5-5-4-5
E9-10-5-5-5-3-3-6
E8-6-6-5-5-5-4-5

E1-3-5-31-01-0
B 3
E1-3-5-31-1-01-0
E0-9-7-5-3-1

Minchaagi neenu baralu


Koothaliye Chaligala
Bechage ni jothegiralu
Ninthaliye malegala
virahadsigalu
Innelli uligaala

Guitar tabs for NEENE NEENE from Punnet Rajkumar starrer film AKASH
E-753
(Neene Neene)
B 5
E325-2
(Yellellu neene)
B3
E-753
(Maathu Neene)
B 5
E325-2
(Manasella neene)
B3

E 712-12-10-9-5
(Nanna yedheya tumba)
E-5-9-9-9-10-7 -(Ninna preethi thane)
E 712-12-10-9-5
(Neenu iradha mele)
E-5-9-9-9-10-7-5-3-0-(Hege irali naa hele jaane)
0 denates open string E in the last line

E1-5-5-3Ninnindale
E1-5-5-3Ninnindale
E1-5-5-3-0-0-1-Kanasondu shuru..
E1-5-5-3Ninnindale
E1-5-5-3Ninnindale
E1-5-5-3-0-0-1-Manasindu..
E5-6-85-6-85-6-85-6-8Ninyedheyalli..
Play 5-6-8like a cycle (4 times)
E-7-7-13-13-12-10-7-7-5-6-5Neenedhuru bandagale
E5-6-85-6-85-6-85-6-8Ninna thutiyalli..
Play 5-6-8like a cycle (4 times)
E-7-7-13-13-12-10-7-7-5-6-5Naa ninthalle halade..
Note: 0 refers to open string E

Hum Tere Bin e Ab Reh Nehi Saak Te


Hum Tere Bin e Ab Reh Nehi Saak Te
E--------11------------------------------------------------------|
B-10-10----13--11-11-10------------11-10-10-10-------------------|
G---------------------------10-10-12-----------------------------|
D----------------------------------------------------------------|
A----------------------------------------------------------------|
E----------------------------------------------------------------|

Tere Bina Kea Yajud He Mera


E-8-8---8-8------------------------------------------------------|
B-----10----10--9--5--5--7---------------------------------------|
G----------------------------------------------------------------|
D----------------------------------------------------------------|
A----------------------------------------------------------------|
E----------------------------------------------------------------|
Tujhse Juda Kar Ho Ja enge To
E--------11------------------------------------------------------|
B-10-10----13--11-11-10------------11-10-10-10-------------------|
G---------------------------10-10-12-----------------------------|
D----------------------------------------------------------------|
A----------------------------------------------------------------|
E----------------------------------------------------------------|
Khudsei Ho Jaenge Juda
E-8-8---8-8------------------------------------------------------|
B-----10----10--9--5--5--7---------------------------------------|
G----------------------------------------------------------------|
D----------------------------------------------------------------|
A----------------------------------------------------------------|
E----------------------------------------------------------------|
Kiu Ki Tum Hi Ho Ab Tum Hi Ho
E----------------------------------------------------------------|
B----------11-------------------11-------------------------------|
G-10--12-----10--12---10-12-----10--12---------------------------|
D----------------------------------------------------------------|
A----------------------------------------------------------------|
E----------------------------------------------------------------|
Zindegi Ab Tum Hi HO oooo
E----------------------------------------------------------------|
B----------------------------------------------------------------|
G-9--12--10P--9--5-5--7--9--10--12-------------------------------|
D----------------------------------------------------------------|
A----------------------------------------------------------------|
E----------------------------------------------------------------|
Chan Vi Mera Daard Vi
E----------------------------------------------------------------|
B-11----------------11-------------------------------------------|
G----10-12--10-12-----10--12-------------------------------------|
D----------------------------------------------------------------|
A----------------------------------------------------------------|
E----------------------------------------------------------------|
Meri Ashiqui Ab Tum Hi Ho
E----------------------------------------------------------------|
B----------------------------------------------------------------|
G-9-9-9-12--10P--9-5-5-7-----------------------------------------|
D----------------------------------------------------------------|
A----------------------------------------------------------------|
E----------------------------------------------------------------|

Apne karam ki kar adayein..e.e.e..


B|-4-3-4-3-6G|3-5-3-5
Apne karam ki kar adayein..e.e.e..
B|-4-3
G|-5-5-5-5Mujhko iraade de
B|-4-3
G|-5-5-5-5Kasmein de, vaade de
B|-33-3-6-6-4-3
G|3-5-55-5-5-5Meri duaaon ke isharon ko sahare de
B|-4-3
G|-5-5-5-5Dil ko thikaane de
B|-4-3
G|-5-5-5-5Naye bahaane de
B|-3-3-3-6-6-4-3
G|-3-5-55-5-3-3-3D|-6-6Khwabon ki barishon ko Mausam ke paimaane de
B|-4-3-4-3-6G|3-5-3-5
Apne karam ki kar adayein
B|-4-3-4-3-6G|3-5-3-5
Kar de idhar bhi tu nigaahein
B|-3-4-3
G|-55-5Sunn raha hai na tu

B|-33G|-5-3-5-5Ro raha hoon, main


B|-3-4-3
G|-5-5-5-3-3-3D|6-6
Sun raha hai na tu
B|3G|-5-5-5-5Kyun ro raha hoon main
B|33-3-4G|-55-5
D|-5-6-6Manzilein rusva hain..
B|-3
G|-5-3-3-3D|6-6-5Khoya hai raasta
B|33-3-4G|-55-5
D|-5-6-6Aaye le jaaye..
B|-3
G|-5-3-3-3D|6-6-5Itni si iltaza
E|-33
B|-6-6-6-6-6-4-3h4G|5Ye meri zamaanat hai
E|-3-3-4-3B|-6-6-6-4-3h4G|5Tu meri amaanat hai haan..
B|-4-3-4-3-6G|3-5-3-5

Apne karam ki kar adayein


B|-4-3-4-3-6G|3-5-3-5
Kar de idhar bhi tu nigaahein
B|-3-4-3
G|-55-5Sunn raha hai na tu
B|-33G|-5-3-5-5Ro raha hoon, main
B|-3-4-3
G|-5-5-5-3-3-3D|6-6
Sun raha hai na tu
B|3G|-5-5-5-5Kyun ro raha hoon main

http://maduvceguitar.blogspot.in/2013/02/kannada-song-guitar-tabs.html

DONI SAGALI MUNDE HOGALI


-----------------------------------------------------------G------5--7-------------------------------------|
B--6-----------6--66-------6--5----8--6--6--|
E-------------------------------------------------|
G---------------------------------|
B---------------8--6--8--6--8--|
E--5---8--5---------------------|
G----------------------------------------7--7----------5---7--------------------7------|
B--------8--------66-------8--6--8-------------6-------------------8--6--8--------6-|
E--5--------5----------------------------------------------------5-----------------------|

-----------------------------------------------------------------------

NEERA BITTU NELADA MELE


----------------------------------------------------------------------G---7-------------------------------------------------------|
B---------6--8--6----88---6--8---6---8----------------8--|
E------------------------------------------6---6\8--6-----|
G--7--7-------------------------------------------------------|
B----------6--8--6--8--6--8---6---8--------6\8-----8--6--|
E------------------------------------------6--------------------|
G-------------5--8--7---------|
B--6--6--5----------| (TWICE)
D---8--------------------------------|
G--------------------------7--8--7--|
B-------6--5---66---8--------------|

MALEYALI JOTHEYALI
--------------------------------------------

D---------------------------------10------G--10--10--9--10------9--7---------9--

D--7--10-------------------------G-------------7--9---------10-B---------------------8-----------G--7--7--------------------7--7------------------B------------10--8--10------------10--8--10----

G--8--8-----------------------|-------------10--9-B-------------11--10--11----|--10--8------------

MANASARE > ELLO MALEYAGIDE


----------------------------------------------------------------------INTRO >
D--10-------------------------------------------------------------------------------------|
G-------8--10----------------------------------------------------------10----------------|
B-----------------8--9--8----8------8--------------11--9--8--9------------8--9-------|
E----------------------------------8-----8-----10-------------------------------------8--|
D-------------------------------------------------------------------------------10--|
G-----------------------------------------------------------------------7--9--------|
B--11--------------------------------------------------8--11--9--8----------------|
E-------8--10--13--12----8--10---11--10--8-----------------------------------|

SONG >
G--9--10--------9---10------------------------------|
B------------8--------------8--8---------11--9---8--|
E------------------------------------8-----------------|
G--10-----------------------|
B-----8--9--9--11--11--8--|

B------------------------------------------------11-------|
E--8--10--12--12--10--10--10---8--8--8-------8---|

E--8----8--8--10--8--12--10--10--|
B------------------------------------------------11-------|
E--8--10--12--12--10--10--10---8--8--8-------8---|
B--9--9--9--11--9---11--9--8--|

KALAVIDA

> THEME MUSIC

-------------------------------------------------------------------

A---------------------------------------8--8--|
D-3/5---8-8-----------------------7-----------|
G -------------7---5---7---5-----------------|
A--8---------------------------------------------|
D------7--7-------8-------8---7---8---7--5--|
G-------------5--------5------------------------|
A--6---8-------------------------------------------------|
D-----------5------8---8---7--5--7--7--3---5/7--5--|

YEJAMANA > PREMA CHANDRAMA


----------------------------------------------------G-------------10---------------------------10----------------B---8--10---------10--8-8-------8--10----------10--8-8-G-----------------------------------10-------------------------------------B---11--10--8--10-10--8--8-----------8---11--10--8--10-10--8-8-G--10-----------------------------------------10----------------------------------B--------8---11-11--11-11-11------11-----------8---11-11--11-11-11-----11--- -E-----------------------------------8------------------------------------------8-------G----------------------------------10------10-------------------------------B--8--10--11--10--8--8--10-----------------8--11--10--8--8--10--8---