Вы находитесь на странице: 1из 3

http://es.get-tuned.com/afinador-guitarra.

php
Esta es una de las mas chidas que llegaron a interpretar
los Teen Tops y segn mis transcripciones va as, pero si
le encuentran algo malo pus se lo corrigen, adems va a ser
chiquito.
* RIFF
E -1--2-
B -2--3-
G -1--2-
D ----0-
*
Un da hubo una fiesta aqu en la prisin
*
la orquesta de los presos empez a tocar
*
tocaron rockanrol y todo se anim
*
G
y un cuate se par y empez a cantar el rock
D
todo el mundo a bailar
A
G
todo el mundo en la prisin
D
corrieron a bailar el rock
*
El gato le saba dar al saxofn
*
Guillermo le sonaba duro al trombn
*
Mario batera se deca tocar
*
G
y toda la crcel se puso a bailar el rock
D
todo el mundo a bailar
A
G
todo el mundo en la prisin
D
corrieron a bailar el rock
*
El 47 dijo al 23
*
yeme mi cuate vamos a bailar
*
prate volando a rockanrolear
*
G
el rock de la crcel va a comenzar el rock
D
todo el mundo a bailar
A
G
todo el mundo en la prisin
D
corrieron a bailar el rock
e----------13-13-13-13-13----------13-13-13-13-13---------
B----13-15-------------------13-15-------------------13-15

G-15----------------------15----------------------15------
D---------------------------------------------------------
A---------------------------------------------------------
E---------------------------------------------------------
e-13----------13----------13-13-13-13-13--9-9-11-11-13-13-
B-------13-15-------13-15---------------------------------
G----15----------15---------------------------------------
D---------------------------------------------------------
A---------------------------------------------------------
E---------------------------------------------------------
e-11-11-9-9-11-11-13-13-11-11-9--9-9-9-9----------13-13-13
B-------------------------------------------13-15---------
G----------------------------------------15---------------
D---------------------------------------------------------
A---------------------------------------------------------
E---------------------------------------------------------
e-13-13-13-13-13-11-13-11-13-11-13-11-9-/9-
B------------------------------------------
G------------------------------------------
D------------------------------------------
A------------------------------------------
E------------------------------------------
*
Un amargado no quiso bailar
*
se fue a una rincn y se puso a llorar
*
lleg el carcelero y le dijo as
*
G
el rock de la crcel es para gozar el rock
D
todo el mundo a bailar
A
G
todo el mundo en la prisin
D
corrieron a bailar el rock
*
El ronco dijo al gordo es mi oportunidad
*
no hay quien me vea y me puedo pelar
*
t haz lo que quieras pero yo no voy
*
G
pues yo no quiero dejar de bailar el rock
D
todo el mundo a bailar
A
G
todo el mundo en la prisin
D
corrieron a bailar el rock
G
D
corrieron a bailar el rock
G
D *
corrieron a bailar el rock.
***********************************************************
Espero que hayan disfrutado tocndola y si quieren ms pus

noms avsenme.