You are on page 1of 8

guas de Maro

Tom Jobim

Tom: C

[Intro] B/A

B/A G#m6
pau, pedra, o fim do caminho

Em6/G B7M/F#
um resto de toco, um pouco sozinho

F7(9) E7M(9)
um caco de vidro, a vida, o sol

A7(13) A7(13)(9) B6(9)


a noite, a morte, o lao, o anzol

Bsus B7(9-) C#/F


peroba do campo, o n da madeira

Em6 B6(9)
Caing, candeia, o Matita Pereira

Bsus B7(9-) Fm7(5b)


madeira de vento, tombo da ribanceira

Em6 B6(9)
o mistrio profundo, o queira ou no queira

B/A G#m6
o vento ventando, o fim da ladeira
Em6/G B7M/F#
a viga, o vo, festa da cumeeira

F7(9) E7M(9)
a chuva chovendo, conversa ribeira

A7(13) A7(13)(9) B6(9)


Das guas de maro, o fim da canseira

B/A G#m6
o p, o cho a marcha estradeira

Em6/G B7M/F#
Passarinho na mo, pedra de atiradeira

Bsus B7(9-) C#/F


Uma ave no cu, uma ave no cho

Em6 B6(9)
um regato, uma fonte, um pedao de po

B/A G#m6
o fundo do poo, o fim do caminho

Em6/G B7M/F#
No rosto o desgosto, um pouco sozinho

F7(9) E7M(9)
um estrepe, um prego uma ponta, um ponto

A7(13) A7(13)(9) B6(9)


um pingo pingando, uma conta, um conto

Bsus B7(9-) C#/F


um peixe, um gesto, uma prata brilhando

Em6 B6(9)
a luz da manh, o tijolo chegando

B/A G#m6
a lenha, o dia o fim da picada

Em6/G B7M/F#
a garrafa de cana, o estilhao na estrada

Bsus B7(9-) C#/F


o projeto da casa, o corpo na cama

Em6 B6(9)
o carro enguiado, a lama, a lama

B/A G#m6
um passo, uma ponte, um sapo, uma r

Em6/G B7M/F#
um resto de mato na luz da manh

F7(9) E7M(9)
So as guas de maro fechando o vero

A7(13)(9) B6(9)
a promessa de vida no teu corao
[Solo]

E|-----5-----5-------5--5-----10-----------------------------7-----|
B|--------6-------6-------8-6---------7-----7-------7--7-----------|
G|--------5-------5----------------------7-------7-------9-7-------|
D|---------------------------------------7-------7-----------------|
A|----------------6-----6------------------------------------------|
E|---------------------------------8-----8-------8-----8-----------|

E|-------------4---------------3-----------------------------------|
B|----4--4------------4--4------------4--4-2---11---------------10-|
G|---------6-4-------------6-4---------------4---------8--8-6------|
D|------------------------------------------------------------9----|
A|--------------------------------------------------9-----9--------|
E|-5-----5---------4-----4---------3-----3-------------------------|

E|----------------------------------------------------------------|
B|-----------------------------------------------------4-----4----|
G|-----8--8-6---8---6--8--8-6---6------8--8-6-4-4---------4-------|
D|------------9---------------9-----------------------------------|
A|--8---------------7-----7---------5-----5---------2-----2-------|
E|--------1-------------------------------------------------------|

E|----------------------------------------------------------------|
B|-----4--4------------4--4------------4--4-2---------------------|
G|--4-------6-4-4-----------6-4-4-------------4-4-----------------|
D|----------------------------------------------------------------|
A|----------------------------------------------------------------|
E|--5-----5---------4-----4---------3-----3---------2-------------|

E|-----11----19/--------------------------------------------------|
B|-4------12------------------------------------------------------|
G|---4------------------------------------------------------------|
D|----------------------------------------------------------------|
A|----------------------------------------------------------------|
E|----------------------------------------------------------------|
Bsus E7M(9)
uma cobra, um pau, Joo, Jos

Em6 B6(9)
um espinho na mo, um corte no p

Bm7 C#/B
So as guas de maro fechando o vero

C/B B
a promessa de vida no teu corao

B/A G#m6
pau, pedra, o fim do caminho

Em6/G B7M/F#
um resto de toco, um pouco sozinho

Bm7 C#/B
um passo, uma ponte, um sapo, uma r

C/B B
um belo horizonte, uma febre ter

Bm7 C#/B
So as guas de maro fechando o vero

C/B B
a promessa de vida no teu corao
Bsus B7(9-) E7M(9) Em6 B6(9)
au, edra, im, inho resto oco ouco inho

Bsus B7(9) E7M(9) Em6 B6(9)


aco idro ida ol oite orte ao ol

Bsus B7(9-) E7M(9)


So as guas de maro fechando o vero

Em6 B6(9)
a promessa de vida no teu corao

( Bsus B7(9-) E7M(9) )


( Em6 B6(9) )
( Bm7 C#/B B/Bb B )
A7(13) A7(13)(9) B B/A B/Bb B6(9)
5 4 1 2 3
1 2 2 2 3 4
3 4 4
2 3 4 1 2 3

B7(9) B7(9-) B7M/F# Bm7 Bsus C#/B


1 1 2 4 1 2 3 1
2 3 4 3 4 2 3
4 3 4
4 2 3 4

C#/F C/B E7M(9) Em6 Em6/G F7(9)


6 1 1 6 1 6 1
2 3 2 3 2 3 1
2 4 4 2 2 3
3 4 3 4 4

Fm7(5b) G#m6

1 1
2 3 4 2 3 4