You are on page 1of 2

Song- Du Hast

Album- Sehnsucht

Tuning- Standard (E-A-D-G-B-e)

PM- Palm Mute (Where ..... is a continuation thereof)


\- slide
\\- double time slide (twice as fast)

Verse Riff Part 1. x3

e|-----------------------------------------------------|
B|-----------------------------------------------------|
G|-----------------------------------------------------|
D|-7\5--2---2--2-2-2--2-2-7\\5--2---2--2-2-2--2-2-2-2--|
A|-7\5--2---2--2-2-2--2-2-7\\5--2---2--2-2-2--2-2-2-2--|
E|-5\3--0---0--0-0-0--0-0-5\\3--0---0--0-0-0--0-0-0-0--|
PM ................. ......................

On Fourth Time Play This (Verse Part 2.)

e|-----------------------------|
B|-----------------------------|
G|-----------------------------|
D|-5\7--7---7--7-7-7--7-7-7-7--|
A|-5\7--7---7--7-7-7--7-7-7-7--|
E|-3\5--5---5--5-5-5--5-5-5-5--|
PM ......................

Chorus

e|-----------------------------------------------------|
B|-----------------------------------------------------|
G|-----------------------------------------------------|
D|-7\5--2---2--2-2-2--2-2-7\\5--2---2--2-2-2--2-2-2-2--|
A|-7\5--2---2--2-2-2--2-2-7\\5--2---2--2-2-2--2-2-2-2--|
E|-5\3--0---0--0-0-0--0-0-5\\3--0---0--0-0-0--0-0-0-0--|
PM ................. ......................

e|-----------------------------------------------------|
B|-----------------------------------------------------|
G|-----------------------------------------------------|
D|-5\7--7---7--7-7-7--7-7-5\7--7---7--7-7-7--7-7-7-7---|
A|-5\7--7---7--7-7-7--7-7-5\7--7---7--7-7-7--7-7-7-7---|
E|-3\5--5---5--5-5-5--5-5-3\5--5---5--5-5-5--5-5-5-5---|
PM ................. ......................

e|--------------------------------------------------------------|
B|--------------------------------------------------------------|
G|--------------------------------------------------------------|
D|-7\10--10---10--10-10-10--10-10-10\\9--9---9--9-9-9--9-9-9-9--|
A|-7\10--10---10--10-10-10--10-10-10\\9--9---9--9-9-9--9-9-9-9--|
E|-5\8----8----8---8--8--8---8--8--8\\7--7---7--7-7-7--7-7-7-7--|
PM ........................ ......................
e|-----------------------------------------------------|
B|-----------------------------------------------------|
G|-----------------------------------------------------|
D|-7\5--2---2--2-2-2--2-2-7\\5--2---2--2-2-2--2-2-2-2--|
A|-7\5--2---2--2-2-2--2-2-7\\5--2---2--2-2-2--2-2-2-2--|
E|-5\3--0---0--0-0-0--0-0-5\\3--0---0--0-0-0--0-0-0-0--|
PM ................. ......................