Вы находитесь на странице: 1из 3

Tunning

-e----------
-B----------
-G----------
-D----------
-A----------
-E----------

INTRO PIANO
D G Bm A
---0-2p0-----------------0-2p0---0h2p0----------
-3-------3-------------3-------3-------3-2-5v---
--------------2---4v----------------------------
------------------------------------------------
------------------------------------------------
------------------------------------------------

LEAD GUITAR INTRO


D G Bm A
----------------------|-------------------------
-10b12----------------|-10b12-------------------
-------11--9h11-9-7v--|-------11--9h11-9-7h9v---
----------------------|-------------------------
----------------------|-------------------------
----------------------|-------------------------

RIFF A RIFF B RIFF C LEAD GUITAR OUTRO


A D
--------------------|-------|--------0---|-------------------
-2-2h3-3h5p3----3v--|-3--2--|------------|-------------------
--------------------|-2--2--|-----2------|-------7-9--7vv----
--------------------|-2--2--|---2--------|-----7-------------
--------------------|-------|-0----------|-7h9---------------
--------------------|-------|------------|-------------------

SOLO
D G A D
-----------------------------------------------------------------
------------------------------------14-15-17--19h20-19-17-19vv---
--9b11-9b11-9b11r9--7h9------------------------------------------
------------------------7h9---9--7-------------------------------
-----------------------------------------------------------------
-----------------------------------------------------------------

LIRICS:

INTRO

VERSE 1
G D
It's hard for me to say the things I wanna say sometimes

G D
There's no one here but you and me and the broken old street light

Bm G A (riff A)
Lock the door and leave the world outside

D G A
All I got to give to you are these five words and I
CHORUS
D (riff B) G (riff B)
Thank you for loving me

A (riff A) D
For being my eyes when I could't see

Bm (riff B)E A (riff C)


For parting my lips when I couldn't breathe

D G A (riff B)
Thank you for loving me (x2) (in 2nd chorus only once)

VERSE 2
G D
I never knew I had a dream until that dream was you

G D
When I look into your eyes the sky's a different blue

A (riff A)
Cross my heart I were no disguise

D G A
If I tried you'd make believe that you believe my lies

CHORUS

BRIDGE
G
You pick me up when I fall down

A
You ring the bell before they count me out

E F# G
If I was drowing you part the sea

C D E A
And risk your life to rescue me yeah...yeah yeah yeah yeah yeah...

SOLO

INTERLUDE
Bm G A (riff A)
Lock the door and leave the world outside

D G C A
All I got to give to you are these five words and I

ALTERNATIVE CHORUS
D (riff B) G (riff B)
Thank you for loving me

A (riff A) D
For being my eyes when I could't see

Bm (riff B)E A (riff C)


For parting my lips when I couldn't breathe
D (riff B) G (riff B)
Thank you for loving me

A (riff A) D
When I couldn't fly oh! you gave me wings

Bm (riff B)E A (riff C)


For parting my lips when I couldn't breathe

D G A
Thank you for loving me (x3)

A D
Oh God, for loving me

INTRO (x2)

OUTRO end on D