You are on page 1of 3

Amensia 5SOS

Tuning: Standard

Intro:

e|-------2-------2--------2h3-----------|
B|---3-------3-------3---------3---3----|
G|-2---2---2---2---0---0-----0---0------|
D|--------------------------------------|
A|--------------------------------------|
E|--------------------------------------| x2

Verse:

e|-------2-------2-------2h3------------|
B|---3-------3-------3---------3---3----|
G|-2---2---2---2---0---0-----0---0------|
D|--------------------------------------|
A|--------------------------------------|
E|--------------------------------------| x2
I drove by all the places.....

e|-------2---------------2---2-|
B|---3-------3---3---3---------|
G|-----------------0---0---0---|
D|-2---2---2---4---------------|
A|-----------------------------|
E|-----------------------------|
And even though your friends tell me you're doing fine

e|-------2-------2--------2h3-----------|
B|---3-------3-------3---------3---3----|
G|-2---2---2---2---0---0-----0---0------|
D|--------------------------------------|
A|--------------------------------------|
E|--------------------------------------| x2
Are you somewhere feeling lonely......

e|-------2---------------2---2|
B|---3-------3---3---3--------|
G|-----------------0---0---0--|
D|-2---2---2---4--------------|
A|----------------------------|
E|----------------------------|
Sometimes I start to wonder was it just a lie?

e|-------2---------------2---2|
B|---3-------3---3---3--------|
G|-----------------0---0---0--|
D|-2---2---2---4--------------|
A|----------------------------|
E|----------------------------|
If what we had was real, how could you be fine?

e|---2--|
B|---3--|
G|------|
D|------|
A|------|x
E|------|x (strum until chorus starts)
'Cuz I'm not fine at all
Chorus:

(The chorus is just the same 4 chords repeated and the strumming pattern is ddd ududud
)

D A
I remember the day you told me you were leaving
Bm G
I remember the makeup running down your face
D A
And the dreams you left behind you didn't need them
Bm G
Like every single wish we ever made
D A
I wish that I could wake up with amnesia
Bm G
And forget about the stupid little things
D A
Like the way it felt to fall asleep next to you
Bm G
And the memories I never can escape

'Cuz I'm not fine at all.

-Play the intro part once and then repeat the verse and chorus

A* A* Bm* Bm*
If today I woke up with you right beside me
G* G* D* D*
Like all of this was just some twisted dream
A* A* Bm* Bm*
I'd hold you closer than I ever did before
G(start strumming softly)
And you'd never slip away

e|---2--|
B|---3--|
G|------|
D|------|
A|------|x
E|------|x And you'd never hear me say

-Repeat chorus once and play this for the last part which I just point blank wasn't re
ady for, I don't know
about you.

e|-------2---------------2h3------------|
B|---3-------3---3---3---------3---3----|
G|-2---2---2---2---0---0-----0---0------|
D|--------------------------------------|
A|--------------------------------------|
E|--------------------------------------|
No I'm really not fine at

e|-------2---------------2h3------------|
B|---3-------3---3---3---------3---3----|
G|-2---2---2---2---0---0-----0---0------|
D|--------------------------------------|
A|--------------------------------------|
E|--------------------------------------|
all. Tell me this is just a

e|-------2---------------2h3------------|
B|---3-------3---3---3---------3---3----|
G|-2---2---2---2---0---0-----0---0------|
D|--------------------------------------|
A|--------------------------------------|
E|--------------------------------------|
dream. 'Cuz I'm really not fine at all.