Вы находитесь на странице: 1из 4

**************************************************************************

El Mestre (The Teacher) is a traditional folk tune from the Catalan region
in northern Spain.

When the melody is in a lower register (as in the bar24-25), and the thumb
is required to play more than one note, "roll" the chord slightly an give
the melody note a bit more stress. Remember to play the artificial
harmonics with higher force, while being careful to play the accompanying
notes at an equal volume.

Notice the slides throughout the song. For a beautiful outcome, slide a
note and play the next notes while keeping your finger (which you have
slid) on place. In example in the first bar, play the sliding note with
your ring or middle finger, as you will be able to play the following
notes in the second bar using your other fingers. Then again in the fourth
bar you should play the same melody using your little finger, as you will
be able to play the following notes in the fifth bar using your other
fingers.
**************************************************************************

Canciones Populares Catalanas - El Mestre


Arranged by Miguel Llobet

Tablature by Kari Bogdanoff

video: http://www.youtube.com/watch?v=v74TE9JkuwI - Denian Arcoleo

Andante (moving along, flowing, at a walking pace)


Time Signature: 9/8
Standard tuning

1 C5----| C5----| C3---------|


E|-5---7---8s-|-5----------|---------0--|-5---7---8s-|-5-------3--|
B|-----5------|-----6---8s-|-5-------0--|-----5------|-----5---4--|
G|*----5------|-----4------|-----5------|-----5------|-----4====--|
D|*-----------|-0----------|-----4---6--|------------|-----3====--|
A|-0----------|------------|-----5------|-0----------|-3----------|
E|------------|------------|-0----------|------------|------------|

6 C3-|
E|------------|-----0------|---------1--|-3-------3--|-5---7---8s-|
B|-5----------|-3-------2--|-3----------|-1---3s--5--|-5----------|
G|-----4---3--|-2---6---3--|-2-------3--|-3----------|-5---4------|
D|-----5====--|-3---8---5--|-3---2---0--|-2---0------|-3-------7--|
A|-3-------4--|------------|------------|---------3--|------------|
E|------------|------------|------------|------------|------------|

11 1............|2............| C1-----|
E|-5----------|-0----------||--0---------||-0--3-1-0---|-0----------|
B|-4s--8--6---|------------||---------3--||-1--------3-|-----1---3--|
G|-2----------|-4---------*||--4---------||-0----------|-2----------|
D|-3----------|-6---------*||--6---------||-2----------|------------|
A|-2----------|-7----------||--7---------||-3----------|-3----------|
E|------------|-0----------||--0---------||------------|-1----------|

16 C1-----|
E|-0--3-1-0---|-0----------|------------|-0-------5s-|-8---7s--4--|
B|-0--------3-|-----1---3s-|-5---0---3--|------------|---------1--|
G|-0----------|-2---1====--|-0-------2--|-1----------|-9---7------|
D|-2----------|-4----------|-----10s-3--|------------|---------2--|
A|-3----------|------------|-3s--8s--2--|-2----------|------------|
E|------------|------------|------------|-0----------|------------|

21 C5--| C4-----|
E|-0----------|-0----------------|------0====-|
B|-----8---6--|-----8--8--6--6---|-----3=====-|
G|-4h5-7---7--|-6---5------------|----1======-|
D|-3---6---7--|-8---------6--6---|---2=======-|
A|------------|-----8-----4------|--2========-|
E|------------|-----5-----4h5--6-|-0=========-|

24
E|-----0------|-----7------|-----2s--4--|-----0------|------------|
B|-----10-----|-----6------|-----1s--3--|-----10-----|-----0------|
G|------------|------------|-----2s--4--|------------|-----7---0--|
D|--7s-9---10s|-7-------5s-|-2-------2--|--7s-9---10s|-7-------5s-|
A|-0----------|-5----------|------------|-0----------|-8----------|
E|------------|------------|-0----------|------------|------------|

|pizz.________________________________|
29 C3-|C2-| C3----| C1-| C3------|C5----|
E|-----0====--|------------|---------1--|-3----------|-5----------|
B|-----1====--|-3---5---2--|-3-------3--|---6p3-3--8-|-5----------|
G|-----4---0--|-----3---2--|-3---5------|-3------6-5-|-5----------|
D|-2----------|-3-------3--|------------|------------|-7---9---10s|
A|-3----------|-1---3------|-5---3---1--|-3-----5--7-|-8----------|
E|------------|------------|------------|------------|------------|

34 |harm._______________________
E|----------<19>-------|------------|>4<-->7<->5<->4<->2<-|
B|---------0-----------|-------<19>-|---------------------|
G|-------8-------------|------------|-5-------------------|
D|-7-------------------|------------|-0-------------------|
A|-----8----------10-8-|-7----------|---------------------|
E|---7-----------------|-0----------|---------------------|

37_____________________________________________________________
E|>4<->0<->2<-|>4<-->7<->5<->4<->2<-|>4<->0<->2<-|>4<->0<->2<-|
B|-0----------|---------------------|-0----------|------------|
G|------------|-5-------------------|------------|-5----------|
D|------------|-0-------------------|------------|-0----------|
A|------------|---------------------|------------|------------|
E|-0----------|---------------------|-0----------|------------|

41_____| |pizz.__|
E|>4<------5s-|-8---7---4--|-0----------|-0----------|------------|
B|-0----------|------------|-----8s--6--|------------|------------|
G|------------|------------|---------6--|-7---0------|------------|
D|------------|---------2s-|-12--11--7--|-6---0---3--|-2----------|
A|------------|------------|------------|-----1---2--|-4----------|
E|-0----------|------------|------------|---------4--|-5----------|

|harm._____________________
46 C2---| C3----| C1---------| C1-----|
E|--3--5---6--|-3----------|------------|------------|------------|
B|--2---------|-3-------6s-|-3-------1--|-------->3<-|------------|
G|--3--2------|-3-------4--|-2----------|>3<->5<-----|>3<----->2<-|
D|--2------5--|-3---5---6--|-1----------|-0---2---4--|-0---1------|
A|------------|------------|------------|------------|------------|
E|-0----------|------------|-1---2---3--|-4----------|-2---1------|

51_____| C5----|
E|------------|-5---7---8s-|-5----------|---------0--|-----0------|
B|------------|-----5------|-----6---8s-|-5-------0--|-----10-----|
G|-->1<-------|-----5------|-----4------|-----5------|------------|
D|-2----------|------------|-0----------|-----4---6--|--7s-9---10s|
A|-2----------|-0----------|------------|-----5------|-0----------|
E|-0----------|------------|------------|-0----------|------------|

|pizz._________________________________|
56 C3-|C2-| C3----| C1-| C3------|C5-
E|------------|-----0====--|------------|---------1--|-3----------|
B|-----0------|-----1====--|-3---5---2--|-3-------3--|---6p3-3--8-|
G|-----7---0--|-----4---0--|-----3---2--|-3---5------|-3------6-5-|
D|-7-------5s-|-2----------|-3-------3--|------------|------------|
A|-8----------|-3----------|-1---3------|-5---3---1--|-3-----5--7-|
E|------------|------------|------------|------------|------------|

61---| |harm._
E|-5----------|----------<19>-------|------------|
B|-5----------|---------0-----------|-------<19>-|
G|-5----------|-------8-------------|------------|
D|-7---9---10s|-7-------------------|------------|
A|-8----------|-----8----------10-8-|-7----------|
E|------------|---7-----------------|-0----------|

64_________________________________________________________
E|>4<-->7<->5<->4<->2<-|>4<->0<->2<-|>4<-->7<->5<->4<->2<-|
B|---------------------|-0----------|---------------------|
G|-5-------------------|------------|-5-------------------|
D|-0-------------------|------------|-0-------------------|
A|---------------------|------------|---------------------|
E|---------------------|-0----------|---------------------|

67_______________________________|
E|>4<->0<->2<-|>4<->0<->2<-|>4<------5s-|-8---7---4--|-0----------|
B|-0----------|------------|-0----------|------------|-----8s--6--|
G|------------|-5----------|------------|------------|---------6--|
D|------------|-0----------|------------|---------2s-|-12--11--7--|
A|------------|------------|------------|------------|------------|
E|-0----------|------------|-0----------|------------|------------|

72 C3---|C5----|
E|-0---3--3--------|-0----------|------------|------------|------------|
B|-----5--4--6--6--|-0----------|<7>---------|<12>--------|<7>---------|
G|-7---3===--7--5--|------------|<7>----->5<-|------------|<7>----->5<-|
D|-6---------8--7--|-7----------|<7>---------|------------|<7>---------|
A|-----3--4--5--6--|-8----------|------------|<7>---------|------------|
E|-----------------|------------|------------|<9>---------|------------|

77 |pizz.| |pizz.|
E|------------|------------|------------||
B|<12>--------|------------|------------||
G|------------|-9----------|-9----------||
D|------------|------------|------------||
A|<7>---------|-7----------|-7----------||
E|<9>---------|-0----------|-0----------||

Legends:
h hammer on
p pull off
=== sustain (let it ring)
> < artifical (octave) harmonics
<12> natural harmonic, open string, 12th fret
s slide
||* start of repeated section
*|| end of repeated section
pizz. Pizzicato - palm mute at the bridge
harm. Harmonics
C5 Barre, fifth fret.