You are on page 1of 1

CALIFORNIA DREAMING

[Intro]
E|-----------------------------------||
B|-----------------------------------||
G|-----------------------------------|| x8
D|--------0--------------------------||
A|--------0--------------------------||
D|----12~\0--7-8-7-0-10-0-13---------||

[Verse]
E|---------------------------------------------------------------------------------||
B|---------------------------------------------------------------------------------||
G|---------------------------------------------------------------------------------||
D|---------------------------------------------------------------------------------||
A|--------PM~~~~~~~-----PM~~~~~~~~~~~~~~~------------------------------------------||
D|----10h12-0-0-0-0-10h12-0-0-0-0-0-0-0-0-12-0-13-0-12-0-10-0-12-0-13-0-12-0-10-0--||
x4

E|---------------------------------------------------------------------------------||
B|---------------------------------------------------------------------------------||
G|---------------------------------------------------------------------------------||
D|---------------------------------------------------------------------------------||
A|--------PM~~~~~~~-----PM~~~~~~~~~~~~~~~------------------------------------------||
D|----10h12-0-0-0-0-10h12-0-0-0-0-0-0-0-0-12-0-13-0-16-0-13-0-12-0-13-0-12-0-10-0--||

[Chorus]
E|--------------------------------------------------------------------------------||
B|o-------------------------------------------------------------------------------||
G|--------------------------------------------------------------------------------||
D|-----0---x16-----8---x16---10---x16---------------------------------------------||
A|o----0-----------8---------10---------------------------------------------------||
D|-----0-----------8---------10--------12-0-13-0-12-0-10-0-12-0-13-0-12-0-10-0----||

E|----------------------------------------------------------------------------------||
B|---------------------------------------------------------------------------------o||
G|----------------------------------------------------------------------------------||
D|-----0---x16-----8---x16---10---x16-----------------------------------------------||
A|-----0-----------8---------10------------------------------------------------x2--o||
D|-----0-----------8---------10--------12-0-13-0-16-0-13-0-12-0-13-0-16-0-13-0------||

[Intro 2]

[Verse 2]

[Chorus 2]

[Bridge]
E|------------------------------------------------||
B|------------------------------------------------||
G|------------------------------------------------||
D|----8~~~~----5~~~~----0~~~~----3~~~~------------||
A|----8~~~~----5~~~~----0~~~~----3~~~~------------||
D|----8~~~~----5~~~~----0~~~~----3~~~~------------||

E|------------------------------------------------||
B|------------------------------------------------||
G|------------------------------------------------||
D|----8~~~~----5~~~~---PM-----PM------------------||
A|----8~~~~----5~~~~----0-x8---0-16x--------------||
D|----8~~~~----5~~~~----0------0------------------||

[Intro 3]

[Chorus 3]

[Outro]
E|-------------------------------------||
B|-------------------------------------||
G|-------------------------------------|| x8
D|--------0----------------------------||
A|--------0----------------------------||
D|----12~\0--7-8-7-0-10p0-13-----------||

E|-------------------------------------||
B|-------------------------------------||
G|-------------------------------------|| x1
D|--------0----------------------------||
A|--------0----------------------------||
D|----12~\0--7-8-7-0-10p0-13\0---------||