Вы находитесь на странице: 1из 10

Cliffs Of Dover Tab

Transcribed by Torbjørn Hoelsveen

Clean Intro

E---3----------------------------------------------------------------------------------------------------
B---3------3----1------11/12---10----15-----13-----12-----8----------3--3----------------------------
G----------0----0----------------------12--------------------------------------------------------------------
D---5------------------------------------------14-----12---------10-----5--5---------------------------------
A----------5----3------9/10----9------14------------10-----7----------2--3-------------------------
E----------------------------------------------------------------------------------------------------------------------
harmonics
E-----------------------------10--12----------------------------3----------19-----------------------------------
B--12---8--10--12---13----------------8-----------------------3--------------------
G-----------------------------12--12-----------11---9------5p4--------17----17---17--
D-----------------------------9---10----10----12---10-----5-------------------------
A--10---7--9---10---12-----------------7----------------------------------------17-----
E-----------------------------------------------10----8-----3-------------------------
let ring
E--5-----10------10-10-10p8-10p8----------------------------------17-17-17p15-15-------
B--3-----------11-----------------------11------------10-10-10-------------------------
G--5--------------------------------------------12-12---------------15-----------
D--5-------------------------------------------------------------------------
A--3---------8-----------------------------------------------------------------
E---------------------------------------------10-------------------13-----------

E------------------------------------------------------------
B--6---------1-3--1----0------------------------------------------
G--8-8-7--------------------------------------------------------
D---------------------------5---------------------------------
A--6---------3-------------------------------------------------
E-----------------------3-------------------------------------
LEAD INTRO

harmonic
E----------8--12--10----------10----------------------------------------------7-8--7-----
B-------10-----------13-12b13---13-13/15---------------------------------8---------10-------
G-----9---------------------------------------------------------------------7----------------------
D--10------------------------------------------3--5/7/8\7p5-17------------------------
A------------------------------------------------------------------------------------------------
E------------------------------------------------------------------------------------------------

E------------------------------------------------------------------10-10-14------------14-15—15-------------------
B-10\8p6--8/10p8-8-----8-13-12b13r12-13----------12-13---------------------15--------------------------------
G-------------------------10------------------------------------------------------14----------------------------------
D-------------------------------------------------------12---------------------12------------------------------------
A----------------------------------------------------10-----------------------------------------------------------
E-------------------------------------------------------------------------------------------------------------

E------14--15-14--------12-------------------------------------12-15-----------12-14-17-15-14-15
B---15------------17--15----15--/10p8--8------------------13----------13-15------------------------
G14--------------------------------------------------------12-----------------------------------------
D----------------------------------------------------10-14---------------14----------------------------
A-------------------------------------------------10--------------------12------------------------
E----------------------------------------------12---------------------------------------------------

E---------12-------------8-10---8-----------------5-8p7p5----------------------------------
B—15b17---15---12-15-------12--10-12--10---8-----------8---5-8--5-7----5-------------------
G--------------14-------------------------9---------------------7------7-----4--------------------------
D-------------------------------------------------------------------------------------------------
A-------------------------------------------------------------------------------------------------
E-0------------------------------------------------------------------------------------------------

E-------0--------------------------------------------------------------------------10-12---10------------
B—3------0---------------------------------------------------8-10--------10-13-------13---12-13-10-12-10
G------------2-0--2-0--------------------------------------9--------9-10---------------------------------9--
D-----------------2----2-0---2-0---------------------7-10----------------------------------------------------------
A----------------------------2-----2-0----2------7-10------------------------------------------------------------
E---------------------------------------3-0----/8-------------------------------------------------------------

E--------------------------------------10-12----12---14--12---14-15p14p12---14-12-------14-12----
B---------------10-13---10-13-12-13--------15---15-------15----------------15-------15-12-------15-12
G-11b12r11-12-------12--------------------------------------------------------------------------
D--------------------------------------------------------------------------------------------------
A-----------------------------------------------------------------------------------------------------
E-----------------------------------------------------------------------------------------------------

E-------------------------------------------------------------------------------------------------------
B----15-12-15-17p12-----15-12----------------------------------------------------------------------------
G-14-------------------14--------14-12---14-12----------------------------------------------------------------------
D----------------------------------------14------14-12------14-12------------14---------------------------
A-------------------------------------------------------14-12------14-12------------------------------
E--------------------------------------------------------------------------15-12---------------------------
E--------------------------------------------------------15-19------------------------------------8-11--------------
B-----------------------------------------15-17---15-17------17----------------8-10--8-7-7-10--------------------
G--------------------------------------16-------16-----------------------------9----------------------------
D--------------14---16-14--17-16-17------------------------------------7-10----------------------------------
A----14-17-14---17-------------------------------------------------7-10----------------------------------
E-15---------------------------------------------------------------8---------------------------------------

E--8-----------10-13-16--13-17---19-20-19-17----------------------7—11b12r11--7---------------
B-----11-11-12-------------------------------------19-17-19------7-10-----------------7---10-7---------
G-----------------------------------------------------------------9-------------------------9------9-8------
D---------------------------------------------------------------------------------------------------------9--
A----------------------------------------------------------------------------------------------------------
E----------------------------------------------------------------------------------------------------------

E------------------7-9---7-------------------0-2------------------------------------------------------
B-------------7-10----10--9-10-7-9---7--------2---------------------------------------------5------
G—8b9r8-9--------------------------6------------4-2--4-2--------------------------------4-------
D--------------------------------------------------------4-----4-2--4-2---------------4--7------------
A-------------------------------------------------------------------4-----4—2----4/6-----------------
E-------------------------------------------------------------------------------------------------------

E------------------------------14-17-----------------------16-19-------------------------------------
B--7---------14------------15-------------------16-----17-------------------------------------------------------
G----9-8-9--------------12-------------------------14-------------------------------------------------------
D------------------14-------------------16---16------------------------------------------------------------
A---------------------12-------------------14------------------------------------------------------------
E----------------------------------------------------------------------------------------------------

E-15-15---15-17-19-17-15---17-15----------------17-15-----------------------------------------------------
B--------17-----------------19------19-15---15-19-------19-15----17-15--------------------------------
G-------------------------------------------17--------------------17-------17-14----16-14---------16-14--
D----------------------------------------------------------------------------------17-------17-14---------17-14-----
A--------------------------------------------------------------------------------------------------17------------17-----
E--------------------------------------------------------------------------------------------------------------------0---

E--------12---15b17--15-12-14----12--------------------------------------------------------------
B-15b17---15-------------------15----12--17/19---17-------------------------8-10-----------------------
G--------------------------------------------------16--------------------------9------------------------
D----------------------------------------------------------------5-7------7-10----------------------------
A------------------------------------------------------------5-7-----7-10---------------------------------
E----------------------------------------------------------8------------------------------------------

E-----------------------17--------15--15---------------------------------------------------------12-12-15-19
B----------10--------19---19-19---------19---17------------------------------------10-13b15--------------
G--------11--------17------------------------16------------------9-12-11b12r11-12-------------------------21
D-----10--------------------------------------------------5/7/9---------------------------------------------
A----------------17------------------------------------5-7-----------------------------------------------
E--10----------------------------------------------5/7----------------------------------------------------
(15 on high E string is plucked/hybrid picked with middle finger)
E--15---15---15---15---15---15---15--15--15---15---15--15---15---15---15---15---15---15-----------
B-----19-------------------------17-------19------------------------17---19--------------17----------------------
G----------19--------------17------------------19-------------17--------------19---17---------------------------
D----------------19---17----------------------------19---17--------------------------------------------------
A----------------------------------------------------------------------------------------------------
E----------------------------------------------------------------------------------------------------

E--15---15---15---15---15---15---15--15--15---15---15--15---15---15---15---15---
B-----19-------------------------17---19------------17---19-------------17----19-----
G----------19--------------17-------------19--17-------------19---17-----------------
D----------------19---17-------------------------------------------------------------
A-----------------------------------------------------------------------------------------
E---------------------------------------------------------------------------------

E---17--19p17p15---17-15-----------------------------------------------------------------------------------------------
B-------------------19------19-15---19-15-------------------------------------------------------------18b20--------
G----------------------------------17-------17-14----16-14---------16-14----------16-14------------------------
D--------------------------------------------------17--------17-14---------17-14----------17-14----------------------
A-------------------------------------------------------------------17-------------17-------------17--------------------
E------------------------------------------------------------------------------------------------------15-------------------

Main Part

E-----3-------3-----3-------3-------3------3-------------------------3-------3-------3-------3-------------
B-------3------5------7-------5-------3---------------12-13-15--------3-------5-------7---------------------19-20--
G-----------------------------------------------------12--------------------------------------------------17-19----------
D---5-----5-5---5-5----5-5-----5-5----5-5-------12---------------5-----5-5----5-5-----5-5-------17------------
A------------------------------------------------------------------------------------------------------------------
E------------------------------------------------------------------------------------------------------------------

E---------7--10----------7-10----8--8---------------------3--------3-------3------3-----3-----3----3-----5----
B-------8----8---------8---------8------10/12\10--8-------3--------5-------7-------------3----------3---3-----
G—5/7------0-----5/7-----------5--------------------------------------------------------------------------------
D-----------------------------------------------------------5-----5-5-----5-5----5-5-----------------------0--
A-------------------------------------------------------------------------------------------3-----3----3-------
E----------------------------------------------------------------------------------------------------------------

E--10--------------12-14---------------------------------------3-------3--------3-------3------------------
B--8--------12-15--------15--------15----------------------------3-------5--------7-----------1---3------------
G--7------12-------------------------------16\14--12-12------------------------------------------------------
D-------12------------------------17--------------------------5-----5-5------5-5----5-5---------------------
A-------------------------------15----------------------------------------------------------------3---5----------------
E-------------------------------------------------------------------------------------------------------------------
E---------------------------------------------------------------------------------------------------------
B---------------------------------------------------------------------------------------------------------
G------------17----14—17\16-----12-16\14----11-14----11-12-14/16------12-16\14----11--12-11p9--------------------------
D-14/16\14----14-------------12-------------12-------12-----------------12------------12--------------12-9-------------
A---------------------------------------------------------------------------------------------------------
E---------------------------------------------------------------------------------------------------------

E---------------------------------------------------------------------------------------------------------
B-------------------------------------------------13b15--------------------------------------17------------------
G-----------17----14—17\16-----12—16\14-------------16---12--16/17----11--12-11-------------------------------
D--------------14-------------12-----------------------------12------------12------------14-------------------
A---------------------------------------------------------------------------------------------------------
E---------------------------------------------------------------------------------------------------------

E---------------------------------------------------------------------------------------------------------
B---------------------------------------------------------------------------------------------------------
G--17----14—17\16-----12—16\14----11-14----11-12-14/16------12-16\14----11--12-11p9--------------------------
D-----14-------------12-------------12-------12-----------------12------------12--------------12-9-------------
A---------------------------------------------------------------------------------------------------------
E---------------------------------------------------------------------------------------------------------

E---------------------------------------------------------------------------------------------------------
B----------------------------------------------------------------------8-7-----------7-----------------------
G--17----14—17\16-----12—16\14--14----------16-16\14----11-------9-7-----7----------------------------------------
D------14-------------12--------------------12-12------------12--------------7-7--------------------------------------
A---------------------------------------------------------------------------------------------------------
E---------------------------------------------------------------------------------------------------------

E----3-------3-----3-------3----14-17-----12-10---------------------------3-------3-------3------------14-15-----
B------3-------5-----7-----------------------------13-10---12-10-------------5-------7----------------15-----
G--------------------------------------------------------------------12-7------------------------------14---------
D--5-----5-5---5-5----5-5---------------12-------------------------------5-----5-5-----5-5------12------------
A-------------------------------------------------------------------------------------------------------------------
E----------------------------------------------------------------------------------------------------------------------

E---------7-10--------------------12-14----------------------------------------------3-------3---------3------3-----
B-------8-------------------12-15-------15--------------15-17-------------------------3--------5---------7----------
G—5/7------------------12---------------------------14----------16\14p12-12----------------------------------
D-----------------10/12--------------------------17---------------------------------5----5-5------5-5------5-----------
A-----------------------------------------------15------------------------------------------------------------------
E--------------------------------------------------------------------------------------------------------------------

E------7--10-8---8p7---------------------------------14-15p14p12---14p12--15-17-12-------------------------------------
B----8-----------------8-----8------------------12-15--------------15---------------------15-12---15-12--------
G--9------------9--------9-7-------------12-14---------------------------------------------------14-------14-12---
D-----------------------------------12/14----------------------------------------------------------
A---------------------------------------------------------------------------------------------
E---------------------------------------------------------------------------------------------

E-12-10--------------------------------------------------------8--------10--------14-17-15------3-------3-------3-------3-
B-------12-10--12-10------------------------------------8-10---10/13----13/15------------------3-------5-------7-------
G-------------12------12-9---12-9--------9-7---------9----------------------------------------------------------------------
D---------------------------12-----12-9-------9-7--10------------------------------------------5-----5-5-----5-5----5-5----
A--------------------------------------------------------------------------------------------------------------------------------
E-------------------------------------------------------------------------------------------------------------------------------
E---------------------------------------------------------------------------------------------------------
B--1---3----------------------------------------------------------------------------------------------------
G-----------------------17----14—17\16-----12—16\14----11-14----11-12-14/16------12-16\14----11--12-11p9--------------
D----------14/16\14------14-------------12-------------12-------12-----------------12------------12--------------12-9---
A--3---5----------------------------------------------------------------------------------------------------
E---------------------------------------------------------------------------------------------------------

E-----------------------------------------------------------------------12--------12--------------------------
B----------------------------------------------------------------15b17----15p12----15-12---15-12----------------------------
G--17----14—17\16-----12—16\14----11-14----11-12-14--------------------------------14-------14-12----12-------
D-----14-------------12-------------12-------12-------------14---------------------------------------------14-------
A---------------------------------------------------------------------------------------------------------
E---------------------------------------------------------------------------------------------------------

E---------------------------------------------------------------------------------------------------------
B------------------------------------------------------------------------------------------------------
G-------17----14—17\16-----12—16\14----11-14----11-12-14/16------12-16\14----11--12-11p9--------------
D----------14-------------12-------------12-------12-----------------12------------12--------------12-9---
A------------------------------------------------------------------------------------------------------
E---------------------------------------------------------------------------------------------------------

E-----------------------------------------------------------------------------------------------------------------
B---------------------------------------------------------------------------------------------8-7----------7---------
G-------17----14—17\16-----12—16\14----11-14----11-12-14/16------12-16\14----11------9-7----7-----------
D----------14-------------12-------------12-------12-----------------12------------12--------------7-7-----------
A-----------------------------------------------------------------------------------------------------------------
E------------------------------------------------------------------------------------------------------------------

E-----------------------------------3-3--3-3--------3--3--3------------------------------------------------------------------
B-8-8---8-8---------8---8-8---- 3-----1---1--3-3----1----1----------------------------------------------
G-7------5---5---7-7---- 5---5---0-----0------0------0---------------------------------------------------
D-5------5-------5-------5-------------------------------------------------------------------------------------
A---------------------------------------------------------------------------------------------------------------
E----------------------------------------------------------------------------------------------------------------

E-14-17-12------------------------------------------------------------------------------------------
B------------15-12---15---12-------12-10-------------------------------------------------------------
G-------------------14---------14-11-------11-9---------11\9p7----------------------------------------
D----------------- -------------------------------12-9-----------9-7---------------------------------------
A---------------------------------------------------------------------9-7\5-------------------------------------
E----------------------------------------------------------------------------------------------------------------

E----------------------------------------------------------------------------------------------------------
B-8-8---8-8---------8---8-8---------------8-10--12\10-8-10-12---------------------------------------------------------------
G-7------5---5---7-7---- 5---5-------7-7-9-------------------------------------------------------------------------
D-5------5-------5-------5------------------------------------------------------------------------------
A---------------------------------------------------------------------------------------------------------------
E---------------------------------------------------------------------------------------------------------------------------

E---------------------------------------12/14--12-10----------------------------------------------------------------
B-8-8---8-8---------8---8-8-------------------------13-12----10h12h13-12-12\10p8-8------------------------------------
G-7------5---5---7-7---- 5---5-------------------------------12-------------------------------------------------
D-5------5-------5-------5------------------------------------------------------------------------------
A---------------------------------------------------------------------------------------------------
E---------------------------------------------------------------------------------------------------------------------------
E----------------------------------------------------------------------------------------------------------
B---8-8---------8---8-8---------------8-10--12\10-8-10-12---------------------------------------------------------------
G---5---5---7-7---- 5---5-------7-7-9-------------------------------------------------------------------------
D---5-------5-------5------------------------------------------------------------------------------
A---------------------------------------------------------------------------------------------------
E---------------------------------------------------------------------------------------------------------------------------

E-----------------------------------3-3--3-3--------3--3--3------------------------------------------------------------------
B-8-8---8-8---------8---8-8---- 3-----1---1--3-3----1----1----------------------------------------------
G-7------5---5---7-7---- 5---5---0-----0------0------0---------------------------------------------------
D-5------5-------5-------5-------------------------------------------------------------------------------------
A---------------------------------------------------------------------------------------------------------------
E----------------------------------------------------------------------------------------------------------------

E-----------------------5------5---------------------------5-------5----------------------------------------------------------
B--10/12-10-8--8------------------10/12-10-8--8-------------------10/12-10-8--------------------------------------------
G---------------9-----5--5--5---7----------------9-----5---5---5---7---------------9-----------------------------------------
D--------------------------------------------------------------------------------------------------------------------------------
A-------------------------------------------------------------------------------------------------------------------------------
E-----------------------------------------------------------------------------------------------------------------------------

E---5-7---5-7--10--7p5---------------------------------------------------------------------------------
B-8-----8------8--------8------8---7-----------------------------------------------------------------
G-5-----5------5----------------7---7---------------------------------------------------------------
D---------------------------------------------------------------------------------------------
A--------------------------------5---5----------------------------------------------------------
E---------------------------------------------------------------------------------------------

CHORD SOLO

E------2---3-----------------------------7------------------------------------------------3---------------------------------------
B--5---3---3-----12--12-----5---5----8-----10h12p10----12----10---8-----5---5----5------12----12---12----------------
G--5--------------11--12-----4---5---------------------------------------------4---5----5------------------12------------------
D------0-----------------------------------------------------12----12----9----------------------12------------------------------
A---------------------------------------7------------- -------10----9-----7---------------5------10---14-------------------
E--5-------3-----11---12----4----5---------10--------------------------------4---5-------------------------12----------------

E---------------------------------------------------------------------------------------------
B-----13---13---13---13----15---15--15--15---15--15--15--15-----------------------------------------------------------
G---------------------------------------------------------------------------------------------
D--14---14---14---14----16---16--16--16---17--17--17--17--------------------------------------------------------------
A---------------------------------------------------------------------------------------------
E------------------------------------------------------------------/0---------------------------
SOLO PART
E--------14-15--14----------17--15-----15-17-19-15/14--------------------------------------------------------------
B-----15------------17----19------------------------------17--15-17---------------------------------------
G--14--------------------------------------------------------16------16-14-------15/14p12---------------------
D-----------------------17--------------------------------------------------17-14------------14-12------14-12-------------14--
A----------------------------------------------------------------------------------------------------14-12------14-12---------
E-----------------------------------------------------------------------------------------------------------------------15-12-----

E---------------------------------------12-----14------14-17-19b20r19-17----------------------------------------
B------------------------10-12--10-13-----15------15----------------------20-19b20r19-17-19---17--------------------------
G---------------------11----------------------------------------------------------------------------16--------------
D------------------12---------------------------------------------------------------------------------------------
A---7/9/10\9/10--------------------------------------------------------------------------------------------------
E-------------------------------------------------------------------------------------------------------------

E------------------19-20p19p17---19p17---15-17-19-15/14---------------------------------------------------------------
B-----------17-20---------------20---------------------------17---15-17--------------15-12--------------------------
G-----17-19------------------------------------------------------16-------16-14-------------14-12--------------------
D--19----------------------------------------------------------------------------17-14---------------------------
A------------------------------------------------------------------------------------------------------------------
E-------------------------------------------------------------------------------------------------------------------------

E-12-10--------------------------------------------------------------------------------------------------------------5---
B-------12-10--12-10---------------------------------------------------------------------------------------------------
G-------------12------12-9---12-9--------9-7---------------------------------------------------------------------7-----
D---------------------------12-----12-9-------9-7------9\7p5----------------------------------5---------7--5\4---------------
A---------------------------------------------------10-7--------7-5--------------------5----5/7---7--5/7---------------
E---------------------------------------------------------------------7-5/3p0---0-3-5--------------------------------------

E--------7--------10-------------------------12-10--------10----------------------------------------------10-11-14/20-19---
B--8/10---10/12-----10/12\10--8---------------12-13-----13-12-10------------10-13-12b13r12-13------------
G-------------------------------------9-9-----------------------------------------11-------------------------------------
D-------------------------------------------------------------------------------10-------------------------------------
A---------------------------------------------------------------------------------------------------------------------
E----------------------------------------------------------------------------10---------------------------------------

E--17--------15--15----------------------------------------------------15-19-15---------------------------
B-----19-20---------19---17-------------------------------------15-17----------17-15---17-15----------------------
G------------------------16------------------------------------16-----------------------16------16-14------16-14---------
D------------------------------------------12-14--------14-17-----------------------------------------17-14------17-14--------
A-------------------------------10h12/14--------14-17---------------------------------------------------------------------
E----------------------------------------------------------------------------------------------------------------------------

E------------------------------------------------14-17--19b20r19-19--17---------------------------------------
B---------------------------------15----------15----------------------------20-19b20r19--17-19---17---------------
G-------------------------------------------14------------------------------------------------------16-----
D--14-12---------------------17--------16-------------------------------------------------------------
A----------14-12----------15------------------------------------------------------------------------
E----------------15-12---------------17-------------------------------------------------------------
E---------------------------------------------16-17-19--20-20b22-------------------------------------------
B------------------15-17---------------16-17----------------------------------------------------------
G---------------16---------------14-17--------------------------------------------------------------
D---------14-17-----------13-16-----------------------------------------------------------------------
A---14-15-----------------------------------------------------------------------------------------
E---------------------------------------------------------------------------------------------

E------------------------------------------------------------------------------12---------------------------
B---------------------------------------------------------------------------15------15-12---15-12-------------------
G------------17----14—17\16-----12-16\14----11-14----11-12-14---------------------14------14-12--------
D-14/16\14----14-------------12-------------12-------12-------------14------------------------------14-12-----------14--
A---------------------------------------------------------------------------------------------------------------14-12-----------
E----------------------------------------------------------------------------------------------------------------------15-12------

E-------------------------------------------------------------------------------------------------------------15-19------
B-------------------------------------------------------------------------------------------------------15-17------17-
G-------17----14—17\16-----12—16\14----11-14----11-12-14/16------12-16\14--------------16--------
D----------14-------------12-------------12-------12-----------------12--------------------14-17------------
A---------------------------------------------------------------------------------------14-17--------------
E---------------------------------------------------------------------------------------------------------

E-20---17--20\19----15--19\17----14--17---14-15-17---19---15--19\17---14--15-14------------------
B----17-------------15-------------15--------15---------------15------------15------------17-15---------------
G----------------------------------------------------------------------------------------------------16
D---------------------------------------------------------------------------------------------
A---------------------------------------------------------------------------------------------
E---------------------------------------------------------------------------------------------

E-20---17--20\19----15--19---14h17p14----------------------------------------------------------
B----17-------------15----------------------15----------------------------------------------
G-----------------------------------------------14\11-----------------------------------------------------
D-----------------------------------------------------12----------------------------------------
A---------------------------------------------------------------------------------------------
E--------------------------------------------------------10-------------------------------------

E---------------------------------------------------3-------3------3-------3--------3--------3-------8-8p7---10--------
B------------------------------8-7----------7--------3-------5------7-------5--------3----------------------8------
G---16------12-16\14----11------9-7----7----------------------------------------------------------7-----------
D-------12------------12--------------7-7-------5-----5-5----5-5----5-5------5-5-----5-5------------------
A-----------------------------------------------------------------------------------------------------------------
E------------------------------------------------------------------------------------------------------------------

E---3-------3--------3--------3--------------15--------15--20\19p15-----17-15-----15-14------------------------------
B-----3-------5---------7-----------18b20-----15--17-------------------17--------15--------17-15------------------
G------------------------------------------------------------------------------------------------------------------------
D------------------------------------------------------------------------------------------------------------------------
A--5----5-5------5-5-----5-5------------------------------------------------------------------------------------------
E------------------------------------------------------------------------------------------------------------------------
E---12-14-10---10--12p10--12p10p8-----------------------7-10-12p7--------------------------------------------------------
B-------------13------------------------12p10p8---11b12----------------10--------------------3-----------------
G--------------------------------------------------10--------------------------12p9\7------0---0---------------
D----------------------------------------------------------------------------------------9-5------0---------------
A--------------------------------------------------------------------------------------------------------------------
E--------------------------------------------------------------------------------------------------3---------------------

E------------------------------------------15---------------------------------------------------
B--------12---------13--------17-------19-------3------------------------------------------------------
G-------------------------------------------------0--------------------------------------------
D-----12---------14--------17-------19---------0-------------------------------------------------------
A--10---------12---------15-------17------------------------------------------------------------------
E------------------------------------------------3---------------------------------------------