Вы находитесь на странице: 1из 4

SAD!

– XXXTENTACION Fingerstyle Guitar Written by Vinosh


Jegatheesan

Check out my Guitar Cover of this as well as many more videos on


my channel!

https://www.youtube.com/channel/UCIE83l6C-4yLeHjTuKzqrgw

Capo 3

e|------------------------------------------------|
B|-0---------------------------------------------|
G|-0--0--0---0-0-0-----------------------------| X2
D|-2--4--2---4----------------------------------|
A|-2--5--3---5----------------------------------|
E|-0--------------------------------------------|

e|----------------------------------------------------------------|
B|-0---0h1-0-------0-----------0-------------------------------|
G|-0-0-------2-2--0-0-2-0-2-0--0-2-0-2-4---9h10-9---------|
D|-2---0-------------------------------------5----------12-12--|
A|-2---------------3----------------/5-----7--------------------|
E|-0--------------------------------------------10---------------|

e|---------------------------------------------|
B|-----12-------------12----------------------|
G|--12---12--12--12---12--12--------------|
D|-----------7---7---------7------------------|
A|---------------------------------------------|
E|-8-------------------------------------------|

e|-3-0---------------3-0-------------------------------|
B|-----0-0--------------0-0--0-0--0------------------|
G|------2-2-/4-4--4-----2-2--2--2--------------------|
D|-2----------7--7--2---------------------------------|
A|-2---------5-------3------/5------------------------|
E|-0---------------------------------------------------|

e|-3-0---------------------------------------------|
B|-----0-0--------------3-0---------3-0----------|
G|------2-2-/4-4--4--0-----0h2-0-0----2-0-----|
D|-2----------7--7----2----------------------------|
A|-2---------5---------3------------3---5---------|
E|-0-----------------------------------------------|

e|-3-0---------------3-0-------------------------------|
B|-----0-0--------------0-0--0-0--0------------------|
G|------2-2-/4-4--4-----2-2--2--2--------------------|
D|-2----------7--7--2---------------------------------|
A|-2---------5-------3------/5------------------------|
E|-0---------------------------------------------------|
e|-3-0---------------------------------------------|
B|-----0-0--------------3-0---------3-0----------|
G|------2-2-/4-4--4--0-----0h2-0-0----2-0-----|
D|-2----------7--7----2----------------------------|
A|-2---------5---------3------------3---5---------|
E|-0-----------------------------------------------|

e|--------------------------------------------------------|
B|---0-0—0h1-0-----------0-0—0h1-0----------------|
G|-------0-------2-0-0---------0-------2-0-0----------|
D|---------0------------0h2-----------------------------|
A|----------------------3--------------------------------|
E|-0-----------------------------------------------------|

e|--------------------------------------------------------|
B|---0-0—0h1-0-----------0-0-3-1-0-----------------|
G|-------0-------2-0-0----------------0h2-0-----------|
D|---------0------------0h2-----------------------------|
A|----------------------3--------------------------------|
E|-0-----------------------------------------------------|

e|------------------------------------------------|
B|--0-0----0-0---0-0-0h1-0-------------------|
G|------2------2-----0------0h2-0-0-----------|
D|---------0------------------------------------| X2
A|---------------3------------------------------|
E|-0--------------------------------------------|

e|-3-0---------------3-0-------------------------------|
B|-----0-0--------------0-0--0-0--0------------------|
G|------2-2-/4-4--4-----2-2--2--2--------------------|
D|-2----------7--7--2---------------------------------|
A|-2---------5-------3------/5------------------------|
E|-0---------------------------------------------------|

e|-3-0---------------------------------------------|
B|-----0-0--------------3-0---------3-0----------|
G|------2-2-/4-4--4--0-----0h2-0-0----2-0-----|
D|-2----------7--7----2----------------------------|
A|-2---------5---------3------------3---5---------|
E|-0-----------------------------------------------|

e|-3-0---------------3-0-------------------------------|
B|-----0-0--------------0-0--0-0--0------------------|
G|------2-2-/4-4--4-----2-2--2--2--------------------|
D|-2----------7--7--2---------------------------------|
A|-2---------5-------3------/5------------------------|
E|-0---------------------------------------------------|
e|-3-0---------------------------------------------|
B|-----0-0--------------3-0---------3-0----------|
G|------2-2-/4-4--4--0-----0h2-0-0----2-0-----|
D|-2----------7--7----2----------------------------|
A|-2---------5---------3------------3---5---------|
E|-0-----------------------------------------------|

e|------------------------------------------|
B|-----0--0-1h3-1-0----------------------|
G|-0h2--2-----------2--0-0---------------|
D|----------0--------2--4------------------| X2
A|-------------------3--5-------------------|
E|-----0-------------------------------------|

e|-3-0---------------3-0-------------------------------|
B|-----0-0--------------0-0--0-0--0------------------|
G|------2-2-/4-4--4-----2-2--2--2--------------------|
D|-2----------7--7--2---------------------------------|
A|-2---------5-------3------/5------------------------|
E|-0---------------------------------------------------|

e|-3-0---------------------------------------------|
B|-----0-0--------------3-0---------3-0----------|
G|------2-2-/4-4--4--0-----0h2-0-0----2-0-----|
D|-2----------7--7----2----------------------------|
A|-2---------5---------3------------3---5---------|
E|-0-----------------------------------------------|

e|-3-0---------------3-0-------------------------------|
B|-----0-0--------------0-0--0-0--0------------------|
G|------2-2-/4-4--4-----2-2--2--2--------------------|
D|-2----------7--7--2---------------------------------|
A|-2---------5-------3------/5------------------------|
E|-0---------------------------------------------------|

e|-3-0---------------------------------------------|
B|-----0-0--------------3-0---------3-0----------|
G|------2-2-/4-4--4--0-----0h2-0-0----2-0-----|
D|-2----------7--7----2----------------------------|
A|-2---------5---------3------------3---5---------|
E|-0-----------------------------------------------|

e|----------------------------------------------------------------|
B|-0---0h1-0-------0-----------0-------------------------------|
G|-0-0-------2-2--0-0-2-0-2-0--0-2-0-2-4---9h10-9---------|
D|-2---0-------------------------------------5----------12-12--|
A|-2---------------3----------------/5-----7--------------------|
E|-0--------------------------------------------10---------------|
e|---------------------------------------------|
B|-----12-------------12----------------------|
G|--12---12--12--12---12--12--------------|
D|-----------7---7---------7------------------|
A|---------------------------------------------|
E|-8-------------------------------------------|