Вы находитесь на странице: 1из 2

En la Intro y el solo usan un delay [d prm 1: 3 Prm 2 [time]: 50]

Intro: se repite 4 o 6 veces


Ritmo 1 2 3 4
DUDU-D—-DU-DU--DUDU
B F# G#m E

E-9P7-7h9-9p7-7----11-12-12-11--9P7-7h9-9p7-7-----------7-------
B—----------------------------------------------7-9--9----------
G---------------------------------------------------------------
D---------------------------------------------------------------
A---------------------------------------------------------------
E---------------------------------------------------------------

Verso: 1 B F#
B En Jesús soy vencedor
Poderoso G#m F# E
F# Nuestro Dios es poderoso
Nunca fallará
G#m E
Omnipotente Dios Verso: 2
B B
Más de lo que busqué Dios me guía
F# F#
Más de lo que pedí Él conmigo está
G#m E F# G#m E
Grande es nuestro Dios Un camino hará
B
Más de lo que soñé
Coro:GUITARRA EN REDONDAS F#
B F# Más de lo que esperé
Él triunfó a la muerte venció G#m E F#
G#m E Grande es nuestro Dios
Vivo está es poderoso

Instrumental [guitarra acustica]: INTRO X2 RASQUEO SOLO


B-F#-G#m-F#-E

Solo:

E-------------------------------------------------------------------
B-------------------------------------------------------------------
G-11-11-11-11-11-9-9-8----------------------11-11-11-11-8-8-------9-
D-----------------------11-11-11-11s8-8s9-9-----------------11-11---
A-------------------------------------------------------------------
E-------------------------------------------------------------------

Puente:
B/D#
Dios me cuida
F#
Él conmigo está
G#m
Él nunca me deja
F# E
Él nunca me deja
B/D#
Dios me ama
F#
Con eterno amor
G#m
Él nunca me falla
F# E
Él nunca me falla
RASGUEO Y SOLO GUITAR

--14----14----14----14----|

-------------------------------|

--11----11----11----11---

--14----12----12----11----|

-------------------------------|

--11-----9-----9-----8------|

--9----9----9----9----|

------------------------|

--6----6----6----6----|

-------------------------------|

--11----11----12----12----|

-------------------------------|

---8-----8-----9-----9------|

-------------------------------|

-------------------------------|