Вы находитесь на странице: 1из 3

Montagne Sainte-Genevieve tab by Django

ULTIM ATE
GUITAR
COM
Reinhardt
Di�culty: advanced
Tuning: E A D G B E

-------------------------------------------------------------------------------
Montagne Sainte-Genevieve - Django Reinhardt
-------------------------------------------------------------------------------

Tabbed by: Ashley


E-mail: AshJamBor@gmail.com

This is as close as I can get to how I play it, https://soundcloud.com/ashley-borg/mont


agne-saint-genevieve
Tuning: Standard, 3/4, 192bpm

Song Structure: A A B B A

Part A

| | | | | | | | | | | |
e|-------------|---------7-10-|-8h10p8---6/7-10-|-8h10p8---6/7--|
B|-------------|-----5-8------|-----------------|---------------|
G|-------------|---4----------|-----------------|---------------|
D|---------2-4-|-5------------|-----------------|---------------|
A|-------2-----|--------------|-----------------|---------------|
E|-0-2-3-------|--------------|-----------------|---------------|

| | | | | | | | | | | |
|-------------|---------7-8-|-7h8p7---6-5-8-|-7h8p7---6-5--|
|-------------|-----5-8-----|---------------|--------------|
|-------------|---4---------|---------------|--------------|
|---------2-4-|-5-----------|---------------|--------------|
|-------2-----|-------------|---------------|--------------|
|-0-2-3-------|-------------|---------------|--------------|

| | | | | | | | | | | |
|-5-7-8---------------|--------------------|-------------|--------------|
|-------7-8-10--------|--------------------|-------------|--------------|
|--------------8-9-11-|--------------------|-------------|--------------|
|---------------------|-7-9-10-------------|-------------|--------------|
|---------------------|--------6-7-9-------|-------------|--------------|
|---------------------|--------------5-6-7-|-8-------8-6-|-7-------8-6--|

| | | | | | | | | | | |
|--------------|------7-8-7h8p7-5-|---5-6-7-----|--------------|
|--------------|-7-10-------------|-8-------5-6-|-7-8-----5-6--|
|------------8-|------------------|-------------|-----5-6------|
|-------7-10---|------------------|-------------|--------------|
|---6-9--------|------------------|-------------|--------------|
|-7------------|------------------|-------------|--------------|
| | | | | | | | | | | |
|-------------|---------7-10-|-8h10p8---6/7-10-|-8h10p8---6/7--|
|-------------|-----5-8------|-----------------|---------------|
|-------------|---4----------|-----------------|---------------|
|---------2-4-|-5------------|-----------------|---------------|
|-------2-----|--------------|-----------------|---------------|
|-0-2-3-------|--------------|-----------------|---------------|

| | | | | | | | | | | |
|/12--11-10-9-----------|----------------|---------------|-5------------|
|-------------13--12-10-|-9--------------|-------------5-|-----------5h6|
|-----------------------|---10-9---------|-----------5---|---------5----|
|-----------------------|--------12-10-9-|-7h9p7-6-7-----|-------7------|
|-----------------------|----------------|---------------|--------------|
|-----------------------|----------------|---------------|--------------|
| | | | | | | | | | | |
|------------------|-----------------|------------------|-----------------|
|-7-7-7-7-7--5-6-7-|-5h7p5-----------|------------------|-----------------|
|------------------|-----------------|------------------|-----------------|
|------------------|--------------2h3|-4-4-4-4-4--2-3-4-|-2h4p2--------2h3|
|------------------|----------0-3----|------------------|----------0-3----|
|------------------|-----------------|------------------|-----------------|

| | | | | | | | | | | |
|-------------------|-0-1-2-3-4-5-6-7-8-9-10-11-|-12------11-|-12---------|
|-----------0-1-2-3-|---------------------------|---------10-|-12---------|
|---0-1-2-3---------|---------------------------|---------11-|-12---------|
|-4-----------------|---------------------------|---------10-|-11---------|
|-------------------|---------------------------|------------|------------|
|-------------------|---------------------------|------------|------------|

Part B

| | | | | | | | | | | |
|------------7-8--|--------------7-8-9-|-10-7---------------|---------------7-10-|
|-----7-8-10------|-----7-8-9-10-------|------8-------------|-------------8------|
|-7-9-------------|-7-9----------------|--------7-----------|-----------7--------|
|-----------------|--------------------|----------9-5-------|-------5-9----------|
|-----------------|--------------------|--------------7-5---|-----5--------------|
|-----------------|--------------------|------------------7-|-3-7----------------|

| | | | | | | | | | | |
|-12-8--------------8-12-|-10h12p10-9/10-15-14-|-12h14p12------11----|-10--------|
|------10--------10------|---------------------|------------13----12-|-----------|
|---------9----9---------|---------------------|---------------------|---------7-|
|-----------10-----------|---------------------|---------------------|-----------|
|------------------------|---------------------|---------------------|-----------|
|------------------------|---------------------|---------------------|-----------|

| | | | | | | | | | | |
|------------7-8--|--------------7-8-9-|-10-7---------------|---------------7-10-|
|-----7-8-10------|-----7-8-9-10-------|------8-------------|-------------8------|
|-7-9-------------|-7-9----------------|--------7-----------|-----------7--------|
|-----------------|--------------------|----------9-5-------|-------5-9----------|
|-----------------|--------------------|--------------7-5---|-----5--------------|
|-----------------|--------------------|------------------7-|-3-7----------------|
| | | | | | | | | | | |
|-12-8--------------8-12-|-10h12p10-8h10p8-7----|-----------|-----------|
|------10--------10------|-------------------10-|-8---------|-----------|
|---------9----9---------|----------------------|-----7-----|-----------|
|-----------10-----------|----------------------|---------9-|-----------|
|------------------------|----------------------|-----------|-10--------|
|------------------------|----------------------|-----------|-----------|