Вы находитесь на странице: 1из 5

Angeles tab by Elliott Smith

ULTIM ATE
GUITAR
COM
Di�culty: advanced
Tuning: E A D G B E
Capo: 4th fret

=============================================================================
Angeles
Elliott Smith
Either/Or

This tab is a transcription of the instruction video by 'Ethan's guitar lessons and
music' on youtube
Links to videos:
- Whole Song: https://www.youtube.com/watch?v=EQj-Aot4jFk
- Part 1: https://www.youtube.com/watch?v=xBGov-r7tAM
- Part 2: https://www.youtube.com/watch?v=C01ukMSI5SI
- Part 3: https://www.youtube.com/watch?v=hXlkQsGMa3E

Standard Tuning - CAPO 4

=============================================================================
[INTRO]
=============================================================================

Em7+9 A Bmb6 Bmb6/A G


1 + 2 + 3 + 4 + 1 + 2 + 3 + 4 + 1 + 2 + 3 + 4 + 1 + 2 + 3 + 4 +
e|---2-----2--2----|---0-----0--0----|-----------------|-----------------|-
B|------3---3---3-2|------2---2---2-0|---3-----3--3---3|---3----3---3---3|-
G|-----------------|-----------------|------0-------0--|------0---0---0--|-
D|---4---4---4---4-|---2---2---2---4-|---4---4---4---4-|---0---0---0---0-|-
A|-----------------|-0---0---0---0---|-2---2---0---0---|-----------------|-
E|-0---0---0---0---|-----------------|-----------------|-3---3---3---2---|-

Em7+9 A Bmb6 Bmb6/A G


1 + 2 + 3 + 4 + 1 + 2 + 3 + 4 + 1 + 2 + 3 + 4 + 1 + 2 + 3 + 4 +
e|---2-----2--2----|---0-----0--0----|-----------------|--------------0--|-
B|------3---3---3-2|------2---2---2-0|---3-----3--3---3|---3----3---3---3|-
G|-----------------|-----------------|------0-------0--|------0---0------|-
D|---4---4---4---4-|---2---2---2---4-|---4---4---4---4-|---0---0---0---0-|-
A|-----------------|-0---0---0---0---|-2---2---0---0---|-----------------|-
E|-0---0---0---0---|-----------------|-----------------|-3---3---3---3---|-

F# A G D E G A7sus
1 + 2 + 3 + 4 + 1 + 2 + 3 + 4 + 1 + 2 + 3 + 4 + 1 + 2 + 3 + 4 +
e|---2-----0--0----|---3----02-2----0|---0~-000--00--00|---3~-333--33--0-|-
B|------2---2---2-0|--------------3-0|---0~-000--00--00|---0~-000--00--2-|-
G|-----------------|------0----2---2-|---1~-111--11--11|---0~-000--00--0-|-
D|---4---0---2---0-|---0---0-0---0---|---2~-222--22--22|---0~-000--00--0-|-
A|---------0---0---|-----------------|-----------------|-------------0---|-
E|-2---2-----------|-3---3-----------|-0-------0---2---|-3-------3-------|-

Page 1/5
G Bm A G A7sus G
1 + 2 + 3 + 4 + 1 + 2 + 3 + 4 + 1 + 2 + 3 + 4 + 1 + 2 + 3 + 4 +
e|---3~-3----------|-----------------|---333333--33--00|---333333--3333--|-
B|---0~-0----------|---3~-3----2~-2--|---000000--00--22|---000000--0000--|-
G|---0~-0----------|---4~-4----2~-2--|---000000--00--00|---000000--0000--|-
D|---0~-00-4---2---|---4~-44---2~-20-|---000000--00--00|---000000--00000-|-
A|---------------0-|-2-------0-------|-------------0---|-----------------|-
E|-3---------------|-----------------|-3-------3-------|-3-------3-------|-

=============================================================================
[VERSE 1]
=============================================================================

Em7+9 A7 Bmb6 Bmb6/A G6


1 + 2 + 3 + 4 + 1 + 2 + 3 + 4 + 1 + 2 + 3 + 4 + 1 + 2 + 3 + 4 +
e|---222222--2222--|-----------------|-----------------|--(000000)-00--00|-
B|---333333--3333--|---222222--222222|---333333--3333--|---333333--33--33|-
G|---000000--0000--|---000000--000000|---000000--0000--|---000000--00--00|-
D|---444444--4444--|---222222--222222|---444444--44440-|---000000--00--00|-
A|---------------2-|-0-------0-------|-2-------0-------|-----------------|-
E|-0-------0-------|-----------------|-----------------|-3-------3---2---|-

Em7+9 A7 Bmb6 Bmb6/A G6


1 + 2 + 3 + 4 + 1 + 2 + 3 + 4 + 1 + 2 + 3 + 4 + 1 + 2 + 3 + 4 +
e|---222222--2222--|-----------------|-----------------|--(000000)-00--00|-
B|---333333--3333--|---222222--2222--|---333333--3333--|---333333--33--33|-
G|---000000--0000--|---000000--0000--|---000000--0000--|---000000--00--00|-
D|---444444--4444--|---222222--2222--|---444444--44440-|---000000--00--00|-
A|---------------2-|-0-------0-----01|-2-------0-------|-----------------|-
E|-0-------0-------|-----------------|-----------------|-3-------3---2---|-

F# A G D E G A7sus
1 + 2 + 3 + 4 + 1 + 2 + 3 + 4 + 1 + 2 + 3 + 4 + 1 + 2 + 3 + 4 +
e|-----------------|---3333----2222-2|---000000--00--00|---333333--33--00|-
B|---2222----2222--|---0000----3333-3|---000000--00--00|---000000--00--22|-
G|---3333----2222--|---0000----2222-2|---111111--11--11|---000000--00--00|-
D|---44440---22220-|---00000-0-----0-|---222222--22--22|---000000--00--00|-
A|---4444--0-------|-----------------|-----------------|-------------0---|-
E|-2---------------|-3---------------|-0-------0---2---|-3-------3-------|-

G Bm A G A7sus G
1 + 2 + 3 + 4 + 1 + 2 + 3 + 4 + 1 + 2 + 3 + 4 + 1 + 2 + 3 + 4 +
e|---3333----------|-----------------|---333333--33--00|---333333--3333--|-
B|---0000----00----|---3333----2222--|---000000--00--22|---000000--0000--|-
G|---0000----------|---4444----2222--|---000000--00--00|---000000--0000--|-
D|---00000-4-442---|---44444---22220-|---000000--00--00|---000000--00000-|-
A|---------------0-|-2-------0-------|-------------0---|-----------------|-
E|-3---------------|-----------------|-3-------3-------|-3-------3-------|-

=============================================================================
[VERSE 2]
=============================================================================

Page 2/5
Em7+9 A7 Bmb6 Bmb6/A G6
1 + 2 + 3 + 4 + 1 + 2 + 3 + 4 + 1 + 2 + 3 + 4 + 1 + 2 + 3 + 4 +
e|---222222--2222--|-----------------|-----------------|--(000000)-00--00|-
B|---333333--3333--|---222222--2222--|---333333--3333--|---333333--33--33|-
G|---000000--0000--|---000000--0000--|---000000--0000--|---000000--00--00|-
D|---444444--4444--|---222222--2222--|---444444--44440-|---000000--00--00|-
A|---------------2-|-0-------0-----01|-2-------0-------|-----------------|-
E|-0-------0-------|-----------------|-----------------|-3-------3---2---|-

Em7+9 A7 Bmb6 Bmb6/A G6


1 + 2 + 3 + 4 + 1 + 2 + 3 + 4 + 1 + 2 + 3 + 4 + 1 + 2 + 3 + 4 +
e|---222222--2222--|-----------------|-----------------|--(000000)-0000--|-
B|---333333--3333--|---222222--2222--|---333333--3333--|---333333--3333--|-
G|---000000--0000--|---000000--0000--|---000000--0000--|---000000--0000--|-
D|---444444--4444--|---222222--2222--|---444444--44440-|---000000--00000-|-
A|---------------2-|-0-------0-----01|-2-------0-------|-----------------|-
E|-0-------0-------|-----------------|-----------------|-3-------3-------|-

F# A G D E G A7sus
1 + 2 + 3 + 4 + 1 + 2 + 3 + 4 + 1 + 2 + 3 + 4 + 1 + 2 + 3 + 4 +
e|-----------------|---3333----2222-2|---000000--00--00|---333333--33--00|-
B|---2222----2222--|---0000----3333-3|---000000--00--00|---000000--00--22|-
G|---3333----2222--|---0000----2222-2|---111111--11--11|---000000--00--00|-
D|---44440---22220-|---00000-0-----0-|---222222--22--22|---000000--00--00|-
A|---4444--0-------|-----------------|-----------------|-------------0---|-
E|-2---------------|-3---------------|-0-------0---2---|-3-------3-------|-

G Bm A G A7sus G
1 + 2 + 3 + 4 + 1 + 2 + 3 + 4 + 1 + 2 + 3 + 4 + 1 + 2 + 3 + 4 +
e|---3333----------|-----------------|---333333--33--00|---333333--3333--|-
B|---0000----00----|---3333----2222--|---000000--00--22|---000000--0000--|-
G|---0000----------|---4444----2222--|---000000--00--00|---000000--0000--|-
D|---00000-4-442---|---44444---22220-|---000000--00--00|---000000--00000-|-
A|---------------0-|-2-------0-------|-------------0---|-----------------|-
E|-3---------------|-----------------|-3-------3-------|-3-------3-------|-

=============================================================================
[BRIDGE]
=============================================================================

F# F#/G# A C# F# A G D
1 + 2 + 3 + 4 + 1 + 2 + 3 + 4 + 1 + 2 + 3 + 4 + 1 + 2 + 3 + 4 +
e|-----------------|-----------------|-----------------|-----------2222-2|-
B|---222222--222222|---2222-2--666666|---222222--2222-2|---0000----3333-3|-
G|---333333--333333|---2222-2--666666|---333333--2222-2|---0000----2222-2|-
D|---444444--444444|---2222-2--666666|---444444--2222-2|---00000-0-----0-|-
A|---444444--444444|-0-----0-4-------|---4444440-----0-|-----------------|-
E|-2-------4-------|-----------------|-2---------------|-3---------------|-

E G A7sus G Bm A
1 + 2 + 3 + 4 + 1 + 2 + 3 + 4 + 1 + 2 + 3 + 4 + 1 + 2 + 3 + 4 +
e|---000000--00--00|---333333--33--00|---3333----------|-----------------|-
B|---000000--00--00|---000000--00--22|---0000----00----|---3333----2222--|-
G|---111111--11--11|---000000--00--00|---0000----------|---4444----2222--|-
D|---222222--22--22|---000000--00--22|---00000-4-442---|---44444---22220-|-
A|-----------------|-------------0---|---------------0-|-2-------0-------|-
E|-0-------0---2---|-3-------3-------|-3---------------|-----------------|- Page 3/5
G
1 + 2 + 3 + 4 +
e|---333333--33----|-
B|---000000--00----|-
G|---000000--00----|-
D|---000000--00----|-
A|-----------------|-
E|-3-------3---2-1-|-

=============================================================================
[VERSE 3]
=============================================================================

Em7+9 A7 Bmb6 Bmb6/A G6


1 + 2 + 3 + 4 + 1 + 2 + 3 + 4 + 1 + 2 + 3 + 4 + 1 + 2 + 3 + 4 +
e|---222222--2222--|-----------------|-----------------|--(000000)-00--00|-
B|---333333--3333--|---222222--2222--|---333333--3333--|---333333--33--33|-
G|---000000--0000--|---000000--0000--|---000000--0000--|---000000--00--00|-
D|---444444--4444--|---222222--2222--|---444444--44440-|---000000--00--00|-
A|---------------2-|-0-------0-----01|-2-------0-------|-----------------|-
E|-0-------0-------|-----------------|-----------------|-3-------3---2---|-

Em7+9 A7 Bmb6 Bmb6/A G6


1 + 2 + 3 + 4 + 1 + 2 + 3 + 4 + 1 + 2 + 3 + 4 + 1 + 2 + 3 + 4 +
e|---222222--2222--|-----------------|-----------------|--(000000)-0000--|-
B|---333333--3333--|---222222--222222|---333333--3333--|---333333--3333--|-
G|---000000--0000--|---000000--000000|---000000--0000--|---000000--0000--|-
D|---444444--4444--|---222222--222222|---444444--44440-|---000000--00000-|-
A|---------------2-|-0-------0-------|-2-------0-------|-----------------|-
E|-0-------0-------|-----------------|-----------------|-3-------3-------|-

F# A G D E G A7sus
1 + 2 + 3 + 4 + 1 + 2 + 3 + 4 + 1 + 2 + 3 + 4 + 1 + 2 + 3 + 4 +
e|-----------------|---3333----2222-2|---000000--00--00|---333333--33--00|-
B|---2222----2222--|---0000----3333-3|---000000--00--00|---000000--00--22|-
G|---3333----2222--|---0000----2222-2|---111111--11--11|---000000--00--00|-
D|---44440---22220-|---00000-0-----0-|---222222--22--22|---000000--00--00|-
A|---4444--0-------|-----------------|-----------------|-------------0---|-
E|-2---------------|-3---------------|-0-------0---2---|-3-------3-------|-

G Bm A G Bm A
1 + 2 + 3 + 4 + 1 + 2 + 3 + 4 + 1 + 2 + 3 + 4 + 1 + 2 + 3 + 4 +
e|---3333----------|-----------------|---3333----------|-----------------|-
B|---0000----00----|---3333----2222--|---0000----00----|---3333----2222--|-
G|---0000----------|---4444----2222--|---0000----------|---4444----2222--|-
D|---00000-4-442---|---44444---22220-|---00000-4-442---|---44444---22220-|-
A|---------------0-|-2-------0-------|---------------0-|-2-------0-------|-
E|-3---------------|-----------------|-3---------------|-----------------|-

G Bm A G A7sus G A7sus
1 + 2 + 3 + 4 + 1 + 2 + 3 + 4 + 1 + 2 + 3 + 4 + 1 + 2 + 3 + 4 +
e|---3333----------|-----------------|---333333--33--00|---333333--33--00|-
B|---0000----00----|---3333----2222--|---000000--00--22|---000000--00--22|-
G|---0000----------|---4444----2222--|---000000--00--00|---000000--00--00|-
D|---00000-4-442---|---44444---22220-|---000000--00--00|---000000--00--00|-
A|---------------0-|-2-------0-------|-------------0---|-------------0---|-
E|-3---------------|-----------------|-3-------3-------|-3-------3-------|- Page 4/5
G A7sus G
1 + 2 + 3 + 4 + 1 + 2 + 3 + 4 +
e|---333333--33--00|-----------------||
B|---000000--00--22|-0---------------||
G|---000000--00--00|-0---------------||
D|---000000--00--00|-0---------------||
A|-------------0---|-2---------------||
E|-3-------3-------|-3---------------||

Page 5/5