Вы находитесь на странице: 1из 13

18/04/2019 Meu Abrigo - Melim - Cifra Club

O que você quer tocar hoje? Enviar cifra Entrar

página inicial ► pop ► melim ► meu abrigo

exibições
Meu Abrigo 1.817.020
Melim
Cifra: Principal (violão e guitarra)

videoaula Tom: Ab

simplificar cifra [Introdução]


G# C Fm C#9
auto rolagem
Uh, uh, uh, uh, uh, uh
A- texto A+ G# C Fm C#9
Uh, uh, uh, uh, uh, uh
½ tom

[Introdução]
afinação

Parte 1 de 3
capotraste
G# C
exibir E|---4-x-4--4-x-4----8-x-8--8-x-8-----------|
B|---4-x-4--4-x-4----8-x-8--8-x-8-----------|
adicionar à lista... G|---5-x-5--5-x-5----9-x-9--9-x-9-----------|
D|-----x------x--------x------x-------------|
metrônomo A|-----x------x--------x------x-------------|
E|-4---x------x----8---x------x-------------| Anúncio
dicionário

Parte 2 de 3
corrigir
Fm C#9
imprimir E|----8-x--8---8-x--8----4-x-4--4-x-4-------|
baixar cifra B|----9-x--9---9-x--9----4-x-4--4-x-4-------|
G|---10-x-10--10-x-10----6-x-6--6-x-6-------|
D|------x--------x---------x------x---------|
A|-8----x--------x-----4---x------x---------| Os Roni | Os novos humoristas do
E|------x--------x---------x------x---------| Multishow

Multishow Visitar site


acordes
Acordes para: violão e guitarra

https://www.cifraclub.com.br/melim/meu-abrigo/ 1/13
18/04/2019 Meu Abrigo - Melim - Cifra Club

O que você quer tocar hoje? Enviar cifra Entrar

acordes
Acordes para: violão e guitarra

https://www.cifraclub.com.br/melim/meu-abrigo/ 2/13
18/04/2019 Meu Abrigo - Melim - Cifra Club

O que você quer tocar hoje? Enviar cifra Entrar

acordes
Acordes para: violão e guitarra

https://www.cifraclub.com.br/melim/meu-abrigo/ 3/13
18/04/2019 Meu Abrigo - Melim - Cifra Club

O que você quer tocar hoje? Enviar cifra Entrar

acordes
Acordes para: violão e guitarra

https://www.cifraclub.com.br/melim/meu-abrigo/ 4/13
18/04/2019 Meu Abrigo - Melim - Cifra Club

O que você quer tocar hoje? Enviar cifra Entrar

acordes
Acordes para: violão e guitarra

https://www.cifraclub.com.br/melim/meu-abrigo/ 5/13
18/04/2019 Meu Abrigo - Melim - Cifra Club

O que
Parte 1 de 3 você quer tocar hoje?
Enviar cifra Entrar

G# C
E|---4-x-4--4-x-4----8-x-8--8-x-8-----------|
B|---4-x-4--4-x-4----8-x-8--8-x-8-----------|
G|---5-x-5--5-x-5----9-x-9--9-x-9-----------|
D|-----x------x--------x------x-------------|
A|-----x------x--------x------x-------------|
E|-4---x------x----8---x------x-------------|

Parte 3 de 3
Fm C#9
E|----8-x--8---8-x--8----4-x-4-4------------|
B|----9-x--9---9-x--9----4-x-4-4------------|
G|---10-x-10--10-x-10----6-x-6-6------------|
D|------x--------x---------x----------------|
A|-8----x--------x-----4---x----------------|
E|------x--------x---------x----------------|

[Primeira parte]

G#
Desejo a você,
D#9
O que há de melhor
Fm
A minha companhia
C#9
Pra não se sentir só

G#
O Sol, a Lua e o mar
D#9
Passagem pra viajar
Fm
Pra gente se perder
C#9
E se encontrar

[Primeira parte]

Parte 1 de 2
G# D#9
E|---4-x-4--4-x-4----6-x-6--6-x-6-----------|
acordes
Acordes para: violão e guitarra
B|---4-x-4--4-x-4----6-x-6--6-x-6-----------|

https://www.cifraclub.com.br/melim/meu-abrigo/ 6/13
18/04/2019 Meu Abrigo - Melim - Cifra Club
G|---5-x-5--5-x-5----8-x-8--8-x-8-----------|
O que você quer tocar hoje?
D|-----x------x--------x------x-------------|
Enviar cifra Entrar

A|-----x------x----6---x------x-------------|
E|-4---x------x--------x------x-------------|

Parte 2 de 2
Fm C#9
E|---8--x-8---8--x-8-----4-x-4--4-x-4-------|
B|---9--x-9---9--x-9-----4-x-4--4-x-4-------|
G|---10-x-10--10-x-10----6-x-6--6-x-6-------|
D|------x--------x---------x------x---------|
A|-8----x--------x-----4---x------x---------|
E|------x--------x---------x------x---------|

[Pré-refrão]

Fm D#9
Vida boa, brisa e paz
C#9 G#
Nossas brincadeiras ao entardecer
Fm D#9
Rir à toa é bom demais
C#9 D#9
O meu melhor lugar sempre é você

[TAB - Pré-refrão]

Parte 1 de 3
Fm D#9
E|----8-x-8----8-x--8----6-x-6--6-x-6-------|
B|----9-x-9----9-x--9----6-x-6--6-x-6-------|
G|---10-x-10--10-x-10----8-x-8--8-x-8-------|
D|------x--------x---------x------x---------|
A|-8----x--------x-----6---x------x---------|
E|------x--------x---------x------x---------|

Parte 2 de 3
C#9 G#
E|---4-x-4--4-x-4-----4-x-4--4-x-4----------|
B|---4-x-4--4-x-4-----4-x-4--4-x-4----------|
G|---6-x-6--6-x-6-----5-x-5--5-x-5----------|
D|-----x------x---------x------x------------|
A|-4---x------x---------x------x------------|
acordes
Acordes para: violão e guitarra
E|-----x------x-----4---x------x------------|

https://www.cifraclub.com.br/melim/meu-abrigo/ 7/13
18/04/2019 Meu Abrigo - Melim - Cifra Club

Parte 1 de 3
O que você quer tocar hoje? Enviar cifra Entrar

Fm D#9
E|----8-x-8----8-x--8----6-x-6--6-x-6-------|
B|----9-x-9----9-x--9----6-x-6--6-x-6-------|
G|---10-x-10--10-x-10----8-x-8--8-x-8-------|
D|------x--------x---------x------x---------|
A|-8----x--------x-----6---x------x---------|
E|------x--------x---------x------x---------|

Parte 3 de 3
C#9 D#9
E|---4-x-4--4-x-4---6-6-6-6-6---------------|
B|---4-x-4--4-x-4---6-6-6-6-6---------------|
G|---6-x-6--6-x-6---8-8-8-8-8---------------|
D|-----x------x-----8-8-8-8-8---------------|
A|-4---x------x-----6-6-6-6-6---------------|
E|-----x------x-----------------------------|

[Refrão]

C#9 G# Fm D#9
Você é a razão da minha felicidade
C#9 G#
Não vá dizer que eu não sou
Fm D#9
Sua cara-metade
C#9 G# Fm D#9
Meu amor, por favor, vem viver comigo
C#9 D#9
O seu colo é o meu abrigo
G# C Fm F7
Uh, uh, uh, uh, uh, uh

[Segunda parte]

A#
Quero presentear
F9
Com flores Iemanjá
Gm
Pedir um paraíso
D#9 (pausa)
acordes
Acordes para: violão e guitarra
Pra gente se encostar

https://www.cifraclub.com.br/melim/meu-abrigo/ 8/13
18/04/2019 Meu Abrigo - Melim - Cifra Club

O que você
A# quer tocar hoje?
Enviar cifra Entrar

Uma viola a tocar


F9
Melodias pra gente dançar
Gm
A bênção das estrelas
D#9
A nos iluminar

[Pré-refrão]

Gm F9
Vida boa, brisa e paz
D#9 A#
Trocando olhares ao anoitecer
Gm F9
Rir à toa é bom demais
D#9 F9
Olhar pro céu, sorrir e agradecer

[Refrão final]

D#9 A# Gm F9
Você é a razão da minha felicidade
D#9 A#
Não vá dizer que eu não sou
Gm F9
Sua cara-metade
D#9 A# Gm F9
Meu amor, por favor, vem viver comigo
D#9 F9
O seu colo é o meu abrigo
A# D Gm
Uh, uh, meu abrigo
D#9 A#
O seu colo é o meu abrigo
D Gm D#9 C
O meu abrigo Uh, uh, uh, ah Ah

F9 C Am G
Você é a razão da minha felicidade
F9 C
Não vá dizer que eu não sou
acordes
Acordes para: violão e guitarra
Am G

https://www.cifraclub.com.br/melim/meu-abrigo/ 9/13
18/04/2019 Meu Abrigo - Melim - Cifra Club
Sua cara-metade
F9 O que você
C querAm
tocar hoje? Enviar cifra Entrar
G
Meu amor, por favor, vem viver comigo
F9 G9
O seu colo é o meu abrigo
C E7 Am
Uh, uh, meu abrigo
F9 C
O seu colo é o meu abrigo
C E7 Am
Uh, uhiêêê Hummm
F9 G9 C
O seu colo é o meu abrigo

Acordes para: violão e guitarra teclado cavaco ukulele viola caipira

A# Am C C#9 D D#9 E7 F7 F9 Fm G
6ª 5ª 8ª 4ª 10ª 6ª 7ª 8ª 8ª 8ª
2 2 2 2
3 4 3 4 3 4 3 4 3 4 3 4 3 4 3 4 3 4 3 4
2
3 4

G# G9 Gm
4ª 10ª 10ª
2 2
3 4 3 4 3 4

Composição: Gabriela Melim / Rodrigo Melim Colaboração e revisão: +7

53 comentários Conseguiu tocar?

212 247
comentar tocaram sim não ainda não
acordes
Acordes para: violão e guitarra

https://www.cifraclub.com.br/melim/meu-abrigo/ 10/13
18/04/2019 Meu Abrigo - Melim - Cifra Club

Bruno Filipini Top covers Ver mais →


O que você quer tocar hoje? Enviar cifra Entrar
Está certo, mas esta cifra confunde bastante. Não segue alguns padrões que normalmente utilizamos,
como a armadura de clave.
Uéslei Garcia
Seria melhor Ab ao invés de G# por exemplo, pois este é mais utilizado e mais fácil de visualzar. Tem uma 1 98 visualizações
passagem de V7 para I, que está escrito F7 e A#, uma vez que o certo seria Bb.
Arrumar isto seria muito bom para ler e decorar melhor a música. A lógica está bastante confusa.
Curtir · Responder · há 17 horas

Saad Aziz
Acompanho suas críticas há cerca de dois anos e costumo me surpreender com a sua perspicácia, Pablo
- e fico mto feliz qdo descubro que percebi, num filme, uma coisa que vc tb percebeu. Na minha cabeça, e
antes de ler a sua, eu já tinha feito uma crítica de Hereditário bastante semelhante a sua, por ex - o que
me deixou mto feliz! Enfim, qto ao Nós, que acabei de assistir, concordo com vc em que aquela certa
revelação é problemática. Embora tenha funciona pra mim como eleme
Curtir · Responder · há 21 horas

Wellington Barros
ADOREI A CANÇÃO PARABÉNS AO AUTOR E A BANDA
Curtir · Responder · há um mês

Sergio Santos
Olá, quanto a letra, muito legal com conteúdo, quanto ao desenho tonal progressivo( quando há vários
tons em ascendência de timbragem ) explica a grande quantidade de acordes na musica.
Curtir (1) · Responder · há 2 meses

maria medeiros
é o seguinte se tu n tiver nenhuma noção de CAGED tu ta no sal meu amigo
Curtir (3) · Responder · há 3 meses

2 respostas

mostrar mais comentários

Mais acessadas de Melim Ver mais → Relacionados

1 Meu Abrigo 6 Peça Felicidade

2 Ouvi Dizer 7 Velha Infâcia

3 Dois Corações 8 Avião de Papel

4 Zero a Dez 9 Confusão OutroEu Anavitória 2 Reis Pagan John

5 Transmissão de Pensamento 10 Apê


acordes
Acordes para: violão e guitarra

https://www.cifraclub.com.br/melim/meu-abrigo/ 11/13
18/04/2019 Meu Abrigo - Melim - Cifra Club

11 Hipnotizou 16 Minha Felicidade / Singular (Pot-Pourri)


O que você quer tocar hoje? Enviar cifra Entrar
12 Maju 17 Um Anjo do Céu / Isn't She Lovely (Medley)

13 Não Demora 18 Eu Pra Você (part. Sandy)

14 Mais Que a Mim 19 Era Pra Ser Outra Canção Feliz Nossa Toca Fulô de Dnaipes Dândis
Mandacaru
15 Anunciação / Put Your Records On (Pot-Pourri) 20 Um Sinal (part. Ivete Sangalo)

Todos os artistas A B C D E F G H I J K L M N O P Q R S T U V W X Y Z 0/9

Músicas Aprenda Participe Sobre o site

Top músicas Como tocar violão Crie sua conta grátis Aviso Legal

Novidades Afinador Envie cifras Contato

Vídeos Dicionário de acordes Peça cifras Anuncie no Cifra Club

Aplicativos Siga-nos

Youtube Facebook Instagram Twitter Google Plus

Mais música em Idiomas

Português Español

Feito com em Belo Horizonte


© 1996 - 2019, 456 mil músicas, 29. milhões de pessoas cadastradas
O maior site de ensino de música do Brasil

Parceiro: Terra Música acordes


Acordes para: violão e guitarra

https://www.cifraclub.com.br/melim/meu-abrigo/ 12/13
18/04/2019 Meu Abrigo - Melim - Cifra Club

https://www.cifraclub.com.br/melim/meu-abrigo/ 13/13