Вы находитесь на странице: 1из 8

18/04/2019 Notificação Preferida - Zé Neto e Cristiano - Cifra Club

O que você quer tocar hoje? Enviar cifra Entrar

página inicial ► sertanejo ► zé neto e cristiano ► notificação preferida

2 Combos Whopper por R$30?


Burger King - Anália Franco

exibições
Notificação Preferida 1.166.363
Zé Neto e Cristiano
Cifra: Principal (violão e guitarra)

videoaula Tom: G#m (forma dos acordes no tom de Em)

simplificar cifra Capotraste na 4ª casa

auto rolagem [Intro] C9 D Bm7 Em7

A- texto A+
[TAB - Dedilhado intro]

½ tom
Parte 1 de 2
afinação C9 D
E|------------------------------------------|
capotraste B|-------3-------------3--------------------|
G|-----0---0---------2---2---2--------------|
exibir
D|---2-------2-----0-------0---0------------|
adicionar à lista... A|-3-----------3----------------------------|
E|------------------------------------------|

metrônomo
Parte 2 de 2
dicionário
Bm7 Em7
E|------------------------------------------|
corrigir B|-------3---------------3------------------|
imprimir G|-----2---2-----------0---0----------------|
D|---4-------4-------2-------2--------------|
baixar cifra
A|-2-----------2---------------2------------|
acordes
Acordes para: violão e guitarra

https://www.cifraclub.com.br/ze-neto-cristiano/notificacao-preferida/ 1/8
18/04/2019 Notificação Preferida - Zé Neto e Cristiano - Cifra Club

E|-----------------0------------------------|
O que você quer tocar hoje? Enviar cifra Entrar

[Primeira Parte]

C9 D
Já doeu
Bm7 Em7
Mas hoje não dói mais
C9 D
Tanto fiz
Bm7 Em7
Que agora tanto faz

[TAB - Dedilhado primeira parte]

Parte 1 de 2
C9 D
E|------------------------------------------|
B|-------3-------------3--------------------|
G|-----0---0---------2---2---2--------------|
D|---2-------2-----0-------0---0------------|
A|-3-----------3----------------------------|
E|------------------------------------------|

Parte 2 de 2
Bm7 Em7
E|------------------------------------------|
B|-------3---------------3------------------|
G|-----2---2-----------0---0----------------|
D|---4-------4-------2-------2--------------|
A|-2-----------2---------------2------------|
E|-----------------0------------------------|

[Pré-Refrão]

C9
O nosso amor calejou
D
acordes
Acordes para: violão e guitarra
Apanhou, apanhou que cansou

https://www.cifraclub.com.br/ze-neto-cristiano/notificacao-preferida/ 2/8
18/04/2019 Notificação Preferida - Zé Neto e Cristiano - Cifra Club

Bm7
O que você quer tocar hoje?
Na minha cama cê fez tanta falta
Enviar cifra Entrar

Em7
Que o meu coração te expulsou

C9
Não tem mais eu e você
D
Tá facin de entender
C9
Você me deu aula
D C9/E D/F#
De como aprender te esquecer

[Refrão]

C9
Foi, mas não é mais
D
A minha notificação preferida
Bm7
Já foi, mas não é mais
Em7
A número um da minha vida
C9 D
Sinto em te diz__er
Em7
Mas eu já superei você

[Solo]

C9 D Em7

[TAB - Solo Refrão]

E|-----------------------------------------------------|
B|-----------------------------------------------------|
G|-----0-2/4~------0-4/7~--5/7-5-2-2h4~----------------|
D|-2-4--------2-4--------------------------------------|
acordes
Acordes para: violão e guitarra
A|-----------------------------------------------------|

https://www.cifraclub.com.br/ze-neto-cristiano/notificacao-preferida/ 3/8
18/04/2019 Notificação Preferida - Zé Neto e Cristiano - Cifra Club

E|-----------------------------------------------------|
O que você quer tocar hoje? Enviar cifra Entrar

[Pré-Refrão]

C9
O nosso amor calejou
D
Apanhou, apanhou que cansou
Bm7
Na minha cama cê fez tanta falta
Em7
Que o meu coração te expulsou

C9
Não tem mais eu e você
D
Tá facin de entender
C9
Você me deu aula
D C9/E D/F#
De como aprender te esquecer

[Refrão final]

C9
Foi, mas não é mais
D
A minha notificação preferida
Bm7
Já foi, mas não é mais
Em7
A número um da minha vida
C9 D
Sinto em te diz__er
Em7
Mas eu já superei você

C9
Foi, mas não é mais
acordes
Acordes para: violão e guitarra
D

https://www.cifraclub.com.br/ze-neto-cristiano/notificacao-preferida/ 4/8
18/04/2019 Notificação Preferida - Zé Neto e Cristiano - Cifra Club

A minha notificação preferida


O que você
Bm7quer tocar hoje?
Enviar cifra Entrar

Já foi, mas não é mais


Em7
A número um da minha vida
C9 D
Sinto em te diz__er
Em7
Mas eu já superei você (Solo final)
C9 D Em7
Já doeu, mas hoje não dói mais

[TAB - Solo Final]

E|---------------x-x-----------------------------------|
B|---------------x-x-----------------------------------|
G|-0-2-4-4/7\4~--x-x--2h4p2~---------------------------|
D|---------------x-x---------4b5r4--0h2----------------|
A|-----------------------------------------------------|
E|-----------------------------------------------------|

Acordes para: violão e guitarra teclado cavaco ukulele viola caipira

Bm7* C9* C9/E* D* D/F#* Em7*


4ª 4ª 4ª 4ª 4ª 4ª

1 1 1 2 1 2 1 2
3 2 3 4 2 3 4 3 3 3 4
4

D#m7 com E9 com E9/G# com F# com F#/A# com G#m7 com
forma de forma de C9 forma de forma de D forma de forma de
Bm7 C9/E D/F# Em7

Composição: Junior Gomes / Samuel Alves / Thiago Alves / Vine Show Colaboração e revisão:

acordes
Acordes para: violão e guitarra

https://www.cifraclub.com.br/ze-neto-cristiano/notificacao-preferida/ 5/8
18/04/2019 Notificação Preferida - Zé Neto e Cristiano - Cifra Club

O que você quer tocar hoje? Enviar cifra Entrar

11 comentários Conseguiu tocar?

131 87
comentar tocaram sim não ainda não

Érik Guedes
porque não tá dando opção de mudar o tom mais?
Curtir · Responder · há 2 dias

Alê Faccini
.....essas bostas tem a VOZ tudo igual....henrique e juliano, Jorge e mateus, Ze neto e cristiano....que
mesmice horrorosa de " bodes" berrando
Curtir (3) · Responder · há 2 meses

Mário Filho
Na verdade, a cifra sem o capo fica: Tom: G#m
Cifra: E9 - F# - D#m7 - G#m7 - E9/G# - F#/A#
Curtir · Responder · há 2 meses

Inara Krützmann
Qual é a batida ?
Curtir · Responder · há 5 meses

2 respostas

Iris Ferman
you guys are best
Curtir · Responder · há 6 meses

mostrar mais comentários

Mais acessadas de Zé Neto e Cristiano Ver mais → Relacionados


acordes
Acordes para: violão e guitarra

https://www.cifraclub.com.br/ze-neto-cristiano/notificacao-preferida/ 6/8
18/04/2019 Notificação Preferida - Zé Neto e Cristiano - Cifra Club

1 Notificação Preferida 11 Whisky e Gelo


O que você quer tocar hoje? Enviar cifra Entrar
2 Largado Às Traças 12 Te Amo
3 Estado Decadente 13 Long Neck
4 Mulher Maravilha 14 A Gente Continua Henrique e Bruno e Lucas e Matheus e
Juliano Barretto Vinícius Kauan
5 Status Que Eu Não Queria 15 Novela Das Nove
6 Bebida Na Ferida 16 Eu Ligo Pra Você
7 Seu Polícia 17 Moça do Espelho
8 Derreter a Aliança 18 Cheiro de Terra (part. Daniel) Gabriel Gava Thiago e Maiara e Guilherme
9 Cadeira de Aço Donizeti Maraisa Valim
19 Sobrando Ausência
10 Amigo Taxista 20 A Farra Perdeu Pro Amor

Todos os artistas A B C D E F G H I J K L M N O P Q R S T U V W X Y Z 0/9

Músicas Aprenda Participe Sobre o site

Top músicas Como tocar violão Crie sua conta grátis Aviso Legal

Novidades Afinador Envie cifras Contato

Vídeos Dicionário de acordes Peça cifras Anuncie no Cifra Club

Aplicativos Siga-nos

Youtube Facebook Instagram Twitter Google Plus

Mais música em Idiomas Acordes para:


acordes
violão e guitarra

https://www.cifraclub.com.br/ze-neto-cristiano/notificacao-preferida/ 7/8
18/04/2019 Notificação Preferida - Zé Neto e Cristiano - Cifra Club

Português Español
O que você quer tocar hoje? Enviar cifra Entrar

Feito com em Belo Horizonte


© 1996 - 2019, 456 mil músicas, 29. milhões de pessoas cadastradas
O maior site de ensino de música do Brasil

Parceiro: Terra Música

acordes
Acordes para: violão e guitarra

https://www.cifraclub.com.br/ze-neto-cristiano/notificacao-preferida/ 8/8