Вы находитесь на странице: 1из 14

18/04/2019 Ninguém Explica Deus - Preto No Branco - Cifra Club

O que você quer tocar hoje? Enviar cifra Entrar

página inicial ► gospel/religioso ► preto no branco ► ninguém explica deus

exibições
Ninguém Explica Deus 2.395.878
Preto No Branco
Cifra: Principal (violão e guitarra)

videoaula Tom: G

simplificar cifra [Intro] G5(7M) G7M Em7(9) Em9


C7M G/B Am7(9)
auto rolagem

A- texto A+ Parte 1 de 4
G5(7M) G7M
½ tom E|------------------------------------------|
B|-------3-------0---------0----------------|
afinação
G|-----0-----0---------0-------0------------|
D|---4-----4---4-----4---4---4---4----------|
capotraste
A|------------------------------------------|
exibir E|-3---------------3------------------------|

adicionar à lista... Parte 2 de 4


Em7(9) Em9
metrônomo E|------------------------------------------|
B|-------3-------0---------0----------------|
dicionário
G|-----0-----0---------0-------0------------|
D|---4-----4---4-----4---4---4---4----------|
corrigir
A|------------------------------------------|
imprimir E|-0---------------0------------------------|
baixar cifra

Parte 3 de 4
Se sua empresa é como uma família, a
C7M G/B
Amil tem o plano certo pra você.
E|-----------0------------3p2---------------|
B|-------0--------------3-----3-------------|
Saber Mais >
G|-----0---------0----0---------0-----------|
acordes
Acordes para: violão e guitarra
D|---2-----2---2------------------0---------|

https://www.cifraclub.com.br/preto-no-branco/ninguem-explica-deus/ 1/14
18/04/2019 Ninguém Explica Deus - Preto No Branco - Cifra Club
A|-3----------------2-----------------------|
O que você quer tocar hoje?
E|------------------------------------------|
Enviar cifra Entrar

Parte 4 de 4
Am7(9)
E|-------------0----0-----------------------|
B|---------0--------0-----------------------|
G|-------5----------5-----------------------|
D|-----5-----5---5--5-----------------------|
A|------------------------------------------|
E|-3/5--------------5-----------------------|

[Primeira Parte – Primeira Estrofe]

G5(7M) G7M
Nada é igual ao Seu redor
Em7(9) Em9
Tudo se faz no Seu olhar
C7M G/B
Todo o universo se formou
Am7(9)
No Seu falar

Parte 1 de 4
G5(7M) G7M
E|------------------------------------------|
B|-------3-------0---------0----------------|
G|-----0-----0---------0-------0------------|
D|---4-----4---4-----4---4---4---4----------|
A|------------------------------------------|
E|-3---------------3------------------------|

Parte 2 de 4
Em7(9) Em9
E|------------------------------------------|
B|-------3-------0---------0----------------|
G|-----0-----0---------0-------0------------|
D|---4-----4---4-----4---4---4---4----------|
A|------------------------------------------|
E|-0---------------0------------------------|

Parte 3 de 4
C7M G/B
acordes
Acordes para: violão e guitarra
E|-----------0------------3p2---------------|

https://www.cifraclub.com.br/preto-no-branco/ninguem-explica-deus/ 2/14
18/04/2019 Ninguém Explica Deus - Preto No Branco - Cifra Club
B|-------0--------------3-----3-------------|
O que você quer tocar hoje?
G|-----0---------0----0---------0-----------|
Enviar cifra Entrar

D|---2-----2---2------------------0---------|
A|-3----------------2-----------------------|
E|------------------------------------------|

Parte 4 de 4
Am7(9)
E|-------------0--------0-------------------|
B|---------0------------0-------------------|
G|-------5---------5----5-------------------|
D|-----5-----5---5------5-------------------|
A|------------------------------------------|
E|-3/5---------------5--5-------------------|

[Primeira Parte - Segunda Estrofe]

G5(7M) G7M
Teologia pra explicar
Em7(9) Em9
Ou big bang pra disfarçar
C7M G/B
Pode alguém até duvidar
Am7(9) C7M/D
Sei que há um Deus a me guardar

Parte 1 de 4
G5(7M) G7M
E|------------------------------------------|
B|-------3-------0---------0----------------|
G|-----0-----0---------0-------0------------|
D|---4-----4---4-----4---4---4---4----------|
A|------------------------------------------|
E|-3---------------3------------------------|

Parte 2 de 4
Em7(9) Em9
E|------------------------------------------|
B|-------3-------0---------0----------------|
G|-----0-----0---------0-------0------------|
D|---4-----4---4-----4---4---4---4----------|
A|------------------------------------------|
E|-0---------------0------------------------|
acordes
Acordes para: violão e guitarra

https://www.cifraclub.com.br/preto-no-branco/ninguem-explica-deus/ 3/14
18/04/2019 Ninguém Explica Deus - Preto No Branco - Cifra Club
Parte 3 de 4
O que você quer tocar hoje?G/B
C7M
Enviar cifra Entrar

E|-----------0------------------------------|
B|-------0---------------0--------3---------|
G|-----0---------0-----0--------0-----------|
D|---2-----2---2-----2--------0-------------|
A|-3---------------3--------2---------------|
E|------------------------------------------|

Parte 4 de 4
Am7(9) C7M/D
E|-------------0--------------0-------------|
B|---------0----------------0-0-------------|
G|-------5---------5------5---5-------------|
D|-----5-----5---5------5-----5-------------|
A|--------------------5-------5-------------|
E|-3/5--------------------------------------|

[Pré-Refrão]

C7M(11+) D9(11)
E eu tão pequeno e frágil
Em7(9)
Querendo Sua atenção
Am7(9) Am7(9)/G
No silêncio encontro
F7M(11+) D/F#
Resposta certa então

Parte 1 de 4
C7M(11+) D9(11)
E|-----------0------------------------------|
B|-------0------------------5---------------|
G|-----0---------0--------0-----0-----------|
D|---4-----4---4--------4-----4-----4-------|
A|-3----------------4/5-----------5---------|
E|------------------------------------------|

Parte 2 de 4
Em7(9)
E|------------------------------------------|
B|---------7-------7--------7---------------|
G|-------0-----0----------0-------0---------|
acordes
Acordes para: violão e guitarra
D|-----5-----5---5------5-------5---5-------|

https://www.cifraclub.com.br/preto-no-branco/ninguem-explica-deus/ 4/14
18/04/2019 Ninguém Explica Deus - Preto No Branco - Cifra Club
A|-5/7----------------7-------7-------------|
O que você quer tocar hoje?
E|------------------------------------------|
Enviar cifra Entrar

Parte 3 de 4
Am7(9) Am7(9)/G
E|-----------0----------------0-------------|
B|-------0----------------0-----------------|
G|-----5---------5------5---------5---------|
D|---5-----5---5------5-----5---5-----------|
A|------------------------------------------|
E|-5----------------3-----------------------|

Parte 4 de 4
F7M(11+) D/F#
E|-------0----------------------------------|
B|-----0----------3-------------------------|
G|-----2--------2---------------------------|
D|---3--------0-----------------------------|
A|------------------------------------------|
E|-1--------2-------------------------------|

[Refrão]

G9 G5 G7M
Dono de toda ciência
Em7(9) Em9
Sabedoria e poder
C7M G/B
Oh dá-me de beber
Am7(9) C7M/D
Da água da fonte da vida

G9 G5 G7M
Antes que o haja houvesse
Em7(9) Em9
Ele já era Deus
C7M G/B
Se revelou ao seus
Am7(9) C7M/D
Do crente ao ateu

Ninguém explica Deus

acordes
Acordes para: violão e guitarra
Parte 1 de 4

https://www.cifraclub.com.br/preto-no-branco/ninguem-explica-deus/ 5/14
18/04/2019 Ninguém Explica Deus - Preto No Branco - Cifra Club
G9 G5 G7M
O que você quer tocar hoje?
E|------------------------------------------|
Enviar cifra Entrar

B|-------0-------3----------0---------------|
G|-----2-------0-------0--------0-----------|
D|---0-------0-------4---4----4---4---------|
A|------------------------------------------|
E|-3-------3-------3------------------------|

Parte 2 de 4
Em7(9) Em9
E|------------------------------------------|
B|-------3-------0---------0----------------|
G|-----0-----0---------0-------0------------|
D|---4-----4---4-----4---4---4---4----------|
A|------------------------------------------|
E|-0---------------0------------------------|

Parte 3 de 4
C7M G/B
E|-----------0------------3p2---------------|
B|-------0--------------3-----3-------------|
G|-----0---------0----0---------0-----------|
D|---2-----2---2------------------0---------|
A|-3----------------2-----------------------|
E|------------------------------------------|

Parte 4 de 4
Am7(9) C7M/D
E|-------------0--------------0-------------|
B|---------0----------0---------------------|
G|-------5---------5--5---5-------5---------|
D|-----5-----5---5----5-5---5---5---5-------|
A|--------------------5---------------------|
E|-3/5--------------------------------------|

(repete as partes 1, 2 e 3)

Parte 04 de 04 (Variação)

Am7(9) C7M/D
E|-------------0------0---------------------|
B|---------0----------0---------------------|
G|-------5---------5--5---------------------|
acordes
Acordes para: violão e guitarra
D|-----5-----5---5----5---------------------|

https://www.cifraclub.com.br/preto-no-branco/ninguem-explica-deus/ 6/14
18/04/2019 Ninguém Explica Deus - Preto No Branco - Cifra Club
A|--------------------5---------------------|
O que você quer tocar hoje?
E|-3/5--------------------------------------|
Enviar cifra Entrar

[Intro com variação] G5(7M) G7M Em7(9) Em9


C7M G/B Am7(9) C7M/D

Parte 1 de 4
G5(7M) G7M
E|------------------------------------------|
B|-------3-------0---------0----------------|
G|-----0-----0---------0-------0------------|
D|---4-----4---4-----4---4---4---4----------|
A|------------------------------------------|
E|-3---------------3------------------------|

Parte 2 de 4
Em7(9) Em9
E|------------------------------------------|
B|-------3-------0---------0----------------|
G|-----0-----0---------0-------0------------|
D|---4-----4---4-----4---4---4---4----------|
A|------------------------------------------|
E|-0---------------0------------------------|

Parte 3 de 4
C7M G/B
E|-----------0------------3p2---------------|
B|-------0--------------3-----3-------------|
G|-----0---------0----0---------0-----------|
D|---2-----2---2------------------0---------|
A|-3----------------2-----------------------|
E|------------------------------------------|

Parte 4 de 4
Am7(9) C7M/D
E|-------------0----0-----------------------|
B|---------0--------0-----------------------|
G|-------5----------5-----------------------|
D|-----5-----5---5--5-----------------------|
A|------------------5-----------------------|
E|-3/5--------------------------------------|

acordes
Acordes para: violão e guitarra
[Primeira Parte]

https://www.cifraclub.com.br/preto-no-branco/ninguem-explica-deus/ 7/14
18/04/2019 Ninguém Explica Deus - Preto No Branco - Cifra Club

G5(7M)
O que você quer tocar
G7M
hoje? Enviar cifra Entrar

Nada é igual ao Seu redor


Em7(9) Em9
Tudo se faz no Seu olhar
C7M G/B
Todo o universo se formou
Am7(9)
No Seu falar

G5(7M) G7M
Teologia pra explicar
Em7(9) Em9
Ou big bang pra disfarçar
C7M G/B
Pode alguém até duvidar
Am7(9) C7M/D
Sei que há um Deus a me guardar

[Pré-Refrão]

C7M(11+) D9(11)
E eu tão pequeno e frágil
Em7(9)
Querendo Sua atenção
Am7(9) Am7(9)/G
No silêncio encontro
F7M(11+) D/F#
Resposta certa então

[Refrão]

G9 G5 G7M
Dono de toda ciência
Em7(9) Em9
Sabedoria e poder
C7M G/B
Oh dá-me de beber
Am7(9) C7M/D
Da água da fonte da vida

G9 G5 G7M
Antes que o haja houvesse
Em7(9) Em9
acordes
Acordes para: violão e guitarra
Ele já era Deus

https://www.cifraclub.com.br/preto-no-branco/ninguem-explica-deus/ 8/14
18/04/2019 Ninguém Explica Deus - Preto No Branco - Cifra Club
C7M G/B
O que
Se revelou você quer tocar hoje?
ao seus
Enviar cifra Entrar

Am7(9) C7M/D
Do gentio ao judeu

Ninguém explica Deus

[Segunda Parte]

G5(7M) G7M
Ninguém explica

Ninguém explica Deus


Em7(9) Em9
Ninguém explica

Ninguém explica Deus


C7M G/B
E se duvida, ou se acredita
Am7(9) F#m7(5-)
Ninguém explica
B7 B7/D#
Ninguém explica Deus

Em
Ninguém explica

Ninguém explica Deus

Dm7(6/9)
Ninguém explica
G7(4) G7
Ninguém explica Deus
C7M G/B
E se duvida, ou se acredita
Am7
Ninguém explica
D7(4)
Ninguém explica Deus

Parte 1 de 8
G5(7M) G7M
E|------------------------------------------|
B|-------3-------0---------0----------------|
acordes
Acordes para: violão e guitarra
G|-----0-----0---------0-------0------------|

https://www.cifraclub.com.br/preto-no-branco/ninguem-explica-deus/ 9/14
18/04/2019 Ninguém Explica Deus - Preto No Branco - Cifra Club
D|---4-----4---4-----4---4---4---4----------|
O que você quer tocar hoje?
A|------------------------------------------|
Enviar cifra Entrar

E|-3---------------3------------------------|

Parte 2 de 8
Em7(9) Em9
E|------------------------------------------|
B|-------3-------0---------0----------------|
G|-----0-----0---------0-------0------------|
D|---4-----4---4-----4---4---4---4----------|
A|------------------------------------------|
E|-0---------------0------------------------|

Parte 3 de 8
C7M G/B
E|-----------0------------3p2---------------|
B|-------0--------------3-----3-------------|
G|-----0---------0----0---------0-----------|
D|---2-----2---2------------------0---------|
A|-3----------------2-----------------------|
E|------------------------------------------|

Parte 4 de 8
Am7(9) F#m7(5-) B7 B7/D#
E|-------------0----------------------------|
B|---------0----------------1---0---7-------|
G|-------5---------5------2-----2---4-------|
D|-----5-----5---5------2-------1---7-------|
A|------------------------------2---6-------|
E|-3/5----------------2---------------------|

Parte 5 de 8
Em
E|------------------------------0-----------|
B|-------0-------0----------0---------------|
G|-----0-----0----------0-------------------|
D|---2-----2---2------2---2---2---0---------|
A|------------------------------------------|
E|-0----------------0-----------------------|

Parte 6 de 8
Dm7(6/9) G7(4) G7
E|-----------0------------------------------|
B|-------0----------------------------------|
acordes
Acordes para: violão e guitarra
G|-----5---------5--------5--4-----4--------|

https://www.cifraclub.com.br/preto-no-branco/ninguem-explica-deus/ 10/14
18/04/2019 Ninguém Explica Deus - Preto No Branco - Cifra Club
D|---3---------4--------3--------3----------|
O que você quer tocar hoje?
A|-5-------5----------5--------5------------|
Enviar cifra Entrar

E|------------------3--------3--------------|

Parte 7 de 8
C7M G/B
E|-----------0------------3p2---------------|
B|-------0--------------3-----3-------------|
G|-----0---------0----0---------0-----------|
D|---2-----2---2------------------0---------|
A|-3----------------2-----------------------|
E|------------------------------------------|

Parte 8 de 8
Am7(9) D7(4)
E|-----------0------3-----------------------|
B|-------1-----1----1---1----1-0------------|
G|-----0---------0--0-0---0------0----------|
D|---2-----2--------0--------2-0---0--------|
A|-0----------------------------------------|
E|------------------------------------------|

[Refrão]

G9 G5 G7M
Dono de toda ciência
Em7(9) Em9
Sabedoria e poder
C7M G/B
Oh dá-me de beber
Am7(9) C7M/D
Da água da fonte da vida

G9 G5 G7M
Antes que o haja houvesse
Em7(9)
Ele já era Deus
C7M G/B
Se revelou ao seus
Am7(9) C7M/D
Do gentio ao judeu
G9
Ninguém explica Deus

acordes
Acordes para: violão e guitarra

https://www.cifraclub.com.br/preto-no-branco/ninguem-explica-deus/ 11/14
18/04/2019 Ninguém Explica Deus - Preto No Branco - Cifra Club

Acordes para: O que


violão e guitarra você quer tocarcavaco
teclado hoje? ukulele viola caipira Enviar cifra Entrar

Am7 Am7(9) Am7(9)/G B7 B7/D# C7M C7M(11+) C7M/D D/F# D7(4) D9(11)
1 5ª 1 1 1 7ª 1 8ª 1
2 2 3 4 2 3 1 2 2 3 1 2 3 2
2 3 2 2 3 4 4 4 3 1
4 2
3

Dm7(6/9) Em Em7(9) Em9 F#m7(5-) F7M(11+) G/B G5 G5(7M) G7 G7(4)


5ª 1 1 1
1 2 1 2 3 4 2 1
1 2 3 4 3 4 2 3 1 1 2
3 3 3
3 4 3 4 4 3 4

G7M G9

1
1 2 2
3 4

Composição: Clóvis Pinho Colaboração e revisão: +13

107 comentários Conseguiu tocar?

150 73
comentar tocaram sim não ainda não

Denyson Sousa
easy
Top covers Ver mais →
Curtir · Responder · há 2 meses

Ei, !
eu consegui tocar e acho essa musica incrivel ... ate que ela é facil .. mas eu nao fiz os dedilhados porque acordes
Acordes para: violão e guitarra
eu ainda nao aprendi mas quando aprender volto nessa musica para tocar

https://www.cifraclub.com.br/preto-no-branco/ninguem-explica-deus/ 12/14
18/04/2019 Ninguém Explica Deus - Preto No Branco - Cifra Club
Curtir · Responder · há 8 meses
Rafael Machado
O que você quer tocar hoje? 1 532 visualizações
Enviar cifra Entrar

Dionizio Alves
a primeira vez que postaram era melhor de tocar , os acordes ficaram diferente agora
Curtir · Responder · há 12 meses

1 resposta

Emily Faustino
Falso, a Bíblia explica a Deus apenas um pouco embora
Curtir · Responder · há um ano

4 respostas

Baranovski .
Realmente, ninguém explica Deus...
Curtir (2) · Responder · há 2 anos

mostrar mais comentários

Mais acessadas de Preto No Branco Ver mais → Relacionados

1 Ninguém Explica Deus 11 O Autor (part. Marcos Almeida)

2 Os Sonhos de Deus 12 Os Anjos Te Louvam

3 Me Deixe Aqui (part. Priscila Alcântara) 13 Meu Grande Amor (part. Sync3)

4 Mil Graus 14 O Cego, a Mulher e o Publicano Soweto Gabriela Juninho Fernandinho


Rocha Black
5 Eu Te Agradeço 15 Arde Outra Vez

6 O Leão e a Igreja 16 O Que Fizeram de Você

7 Não Quero Ser Mais Eu 17 O Leão e a Igreja (part. Nívea Soares)

8 Morada 18 Tudo Coopera Livres Para Paulo César Davi Sacer Leonardo
Adorar Baruk Gonçalves
9 Se Organize (part. Kivitz) 19 O Tempo

10 Baseado Em Quê? 20 Com Você Eu Topo (part. César Menotti & Fabia…

acordes
Acordes para: violão e guitarra

https://www.cifraclub.com.br/preto-no-branco/ninguem-explica-deus/ 13/14
18/04/2019 Ninguém Explica Deus - Preto No Branco - Cifra Club

Todos os artistas O Aque você


B quer
C tocar
D hoje?
E F G H I J K L M N O P Q R S T U V W Enviar
X cifra Z Entrar
Y 0/9

Músicas Aprenda Participe Sobre o site

Top músicas Como tocar violão Crie sua conta grátis Aviso Legal

Novidades Afinador Envie cifras Contato

Vídeos Dicionário de acordes Peça cifras Anuncie no Cifra Club

Aplicativos Siga-nos

Youtube Facebook Instagram Twitter Google Plus

Mais música em Idiomas

Português Español

Feito com em Belo Horizonte


© 1996 - 2019, 456 mil músicas, 29. milhões de pessoas cadastradas
O maior site de ensino de música do Brasil

Parceiro: Terra Música

acordes
Acordes para: violão e guitarra

https://www.cifraclub.com.br/preto-no-branco/ninguem-explica-deus/ 14/14

Оценить