Вы находитесь на странице: 1из 2

The night we met.

Capo on 2nd
Chord Progression: Em,D,G,Em,G,C

Intro & First Verse:

1. (I am not the only traveler)-(who has not repaid his debt)

2. (I’ve been searchin’ for a trail to follow again)-(And then I can


tell myself)

Em D G
e|------3-----|----2-|------------|------------|
B|--------0---|------|------0-----|------0-----|
G|----0-----0-|--2---|----0---0---|----0---0---|
D|--2---------|0-----|--0-------0-|--0-------0-|
A|------------|------|------------|------------|
E|0-----------|------|3-----------|3-----------|

Em G C
e|-------------|------|------0-----|------0-----|
B|-------------|------|----1---1---|----1---1---|
G|-------0-----|----0-|--0-------0-|--0-------0-|
D|-----2---2---|--0---|------------|------------|
A|---2-------2-|------|3-----------|3-----------|
E|-0-----------|3-----|------------|------------|

3. (What the hell I’m supposed to do)-(And then I can tell myself)-
(Not to ride along with you) 3 times.

Em G C
e|-------------|------|------0-----|------0-----|
B|-------------|------|----1---1---|----1---1---|
G|-------0-----|----0-|--0-------0-|--0-------0-|
D|-----2---2---|--0---|------------|------------|
A|---2-------2-|------|3-----------|3-----------|
E|-0-----------|3-----|------------|------------|

CHORUS:
(I had all and then most of you, some and now none of you)

Em D G
e|------3-----|----2-|------------|------------|
B|--------0---|------|------0-----|------0-----|
G|----0-----0-|--2---|----0---0---|----0---0---|
D|--2---------|0-----|--0-------0-|--0-------0-|
A|------------|------|------------|------------|
E|0-----------|------|3-----------|3-----------|
(Take me back to the night we met)

Em G C
e|-------------|------|------0-----|------0-----|
B|-------------|------|----1---1---|----1---1---|
G|-------0-----|----0-|--0-------0-|--0-------0-|
D|-----2---2---|--0---|------------|------------|
A|---2-------2-|------|3-----------|3-----------|
E|-0-----------|3-----|------------|------------|

(I don’t know what I’m supposed to do, haunted by the ghost of you)

Em D G
e|------3-----|----2-|------------|------------|
B|--------0---|------|------0-----|------0-----|
G|----0-----0-|--2---|----0---0---|----0---0---|
D|--2---------|0-----|--0-------0-|--0-------0-|
A|------------|------|------------|------------|
E|0-----------|------|3-----------|3-----------|

(Oh take me back to the night we met)

Em G C
e|-------------|------|------0-----|------0-----|
B|-------------|------|----1---1---|----1---1---|
G|-------0-----|----0-|--0-------0-|--0-------0-|
D|-----2---2---|--0---|------------|------------|
A|---2-------2-|------|3-----------|3-----------|
E|-0-----------|3-----|------------|------------|

2nd Verse:
(When the night was full of terror)-(And your eyes were filled with
tears)-(When you had not touched me yet)-(Oh take me back to the night we
met). 4 times.

Em G C
e|-------------|------|------0-----|------0-----|
B|-------------|------|----1---1---|----1---1---|
G|-------0-----|----0-|--0-------0-|--0-------0-|
D|-----2---2---|--0---|------------|------------|
A|---2-------2-|------|3-----------|3-----------|
E|-0-----------|3-----|------------|------------|

Chorus:
(I had all and then most of you, some and now none of you)-(Take me back
to the night we met)-(I don’t know what I’m supposed to do, haunted by
the ghost of you)-
(Take me back to the night we met)

Outro (Em-G-C-C) twice and Chorus and END.