Вы находитесь на странице: 1из 8

Song:Machine Gun

4/4
Gtr I
<
PM----------------------------
|--------------||-------------------------------|
|--------------||-------------------------------|
|--------------||-------------------------------|
|-----7--(7)---||-------------------------------|
|-----5--(5)---||-------------------------------|
|------------7-||--7-5-6-7-6-5-7--7-5-6-7-6-5-7-|

-----------------------------|
|--------------------------------|
|--------------------------------|
|--------------------------------|
|--------------------------------|
|--------------------------------|
|--7-5-6-7-6-5-7--7-5-6-7-6-5-7--|

D5
---M---------------------------------------------------|
|-------------------------------|------------------------------||
|-------------------------------|------------------------------||
|-------------------------------|------------------------------||
|-------------------------------|-------------------------7----||
|-------------------------------|-------------------------5----||
|--7-5-6-7-6-5-7--7-5-6-7-6-5-7-|--7-5-6-7-6-5-7---7-5-6-----7-||
|
| Gtr II
| <
|-------------------------------|------------------------------||
|-------------------------------|------------------------------||
|-------------------------------|------------------------------||
|-------------------------------|----------------7-------(7)---||
|-------------------------------|----------------5-------(5)---||
|-------------------------------|------------------------------||

Verse1
N.C.
~~~PM----------| PM--------| ~~~
|--------------------------------------|
|--------------------------------------|
|--------------------------------------|
|--------------------------------------|
|--------------------------------------|
|-(7)-7-5-6-7-6-5-7--7-5-6-7-6-5-[0]---|
|
|--------------------------------------|
|--------------------------------------|
|--------------------------------------|
|--------------------------------------|
|--------------------------------------|
|--------------------------------------|

~~~PM--------| PM| PM----| PM------------| PM------| ~~~~


|--------------------------------|---------------------------------|
|--------------------------------|---------------------------------|
|--------------------------------|---------------------------------|
|--------------------------------|---------------------------------|
|--------------------------------|---------------------------------|
|-(0)-5-6-7-6-5-7--7-5-6-7-6-5-7-|--7-5-6-7-6-5-7--7-5-6-7-6-5-[7]-|

D5
~~~~~PM----------| PM--------|
|------------------------------------|
|------------------------------------|
|------------------------------------|
|--------------------------------7---|
|--------------------------------5---|
|-(7)-5-6-[7]-6-5-7--7-5-6-7-6-5-----|
E5 D5/A E5/B D5 E5 D5E5
|-------------------------------|--------------------------|
|-------------------------------|--------------------------|
|-------------------------------|--------------------------|
|-(7)s(b9)(b9)-(b9)x-7-(7)s(b9)(b9)-(b9)x-7-|-7s(b9)(b9)-(b9)x-x-7-(b9)-(b9)(b9)
|-(5)s7-7--7-x-5-(5)s7-7--7-x-5-|-5s7-7--7-x-x-5-7--7-7----|
|--------------5-(5)s7----------|------------------------7-|

N.C.
PM------------| PM------| ~~~
|-------------------------------------|
|-------------------------------------|
|-------------------------------------|
|-------------------------------------|
|-------------------------------------|
|-(7)-7-5-6-7-6-5-7--7-5-6-7-6-5-[7]--|

~~~PM---------------------|
|--------------------------------|
|--------------------------------|
|--------------------------------|
|--------------------------------|
|--------------------------------|
|-(7)-5-6-7-6-5-7--7-5-6-7-6-5S(b9)|

G#5A5 E5 D5 B5
2/4
PM PM PM ~~~
|-------------------------|--------------|----------------||
|-----10-10-10---10--10---|--------------|----------------||
|------(b9)-(b9)-(b9)---(b9)--(b9)--|--------------|-----------
|-------------------------|---------(b9)-7-|----------------||
|-------------------------|-6--7----7--5-|-(b9)(b9)(b9)(b9)-------||
|-(9)----------(b9)-------(b9)|-4--5--0------|-7-7-7-7---[7]--||

Verse2,3
N.C.
4/4
~~~PM----------| PM--------| ~~~~
||-------------------------------------|
||o------------------------------------|
||-------------------------------------|
||-------------------------------------|
||o------------------------------------|
||--(7)-7-5-6-7-6-5-7--7-5-6-7-6-5-[0]-|

~~~~~PM--------| PM| PM----| PM------------| PM------| ~~~


|--------------------------------|------------------------------------|
|--------------------------------|------------------------------------|
|--------------------------------|------------------------------------|
|--------------------------------|------------------------------------|
|--------------------------------|------------------------------------|
|-(0)-5-6-7-6-5-7--7-5-6-7-6-5-7-|--7-5-6-7-6-5-7--7-5-6-7-6-5-[7]----|

D5
~~~PM----------| PM--------|
|----------------------------------|
|----------------------------------|
|----------------------------------|
|--------------------------------7-|
|--------------------------------5-|
|-(7)-5-6-[7]-6-5-7--7-5-6-7-6-5---|

E5 D5/A E5/B D5 E5 D5E5


|-------------------------------|------------------------------|
|-------------------------------|------------------------------|
|-------------------------------|------------------------------|
|-(7)s(b9)(b9)-(b9)x-7-(7)s(b9)(b9)-(b9)x-7-|-(7)s(b9)(b9)-(b9)x-x-7-(b9)-(b9)(b9)-----|
|-(5)s7-7--7-x-5-(5)s7-7--7-x-5-|-(5)s7-7--7-x-x-5-7--7-7------|
|--------------5-(5)s7----------|--------------------------7---|

N.C.
PM------------| PM------| ~~~~
|------------------------------------|
|------------------------------------|
|------------------------------------|
|------------------------------------|
|------------------------------------|
|-(7)-7-5-6-7-6-5-7--7-5-6-7-6-5-[7]-|

~~~~~PM---------------------| PM PM
|--------------------------------|---------------------------|
|--------------------------------|-----10-10-10---10--10-----|
|--------------------------------|------(b9)-(b9)-(b9)---(b9)--(b9)----|
|--------------------------------|---------------------------|
|--------------------------------|---------------------------|
|-(7)-5-6-7-6-5-7--7-5-6-7-6-5S(b9)|-(9)----------(b9)-------(b9)--|

Chorus 1,2
G#5A5 E5 D5 B5 E5 B5A5B5 E5
4/4
PM ~~~~~~~~~
|--------------|------------------------||--------------------------------|
|--------------|------------------------||--------------------------------|
|--------------|------------------------||--------------------------------|
|---------(b9)-7-|----------------------(b9)||-(9)-------------------x-x-(b9)(b9)-|
|-6--7----7--5-|-(b9)(b9)(b9)(b9)-(b9)(b9)(b9)(b9)----7-||-(7)-(b9)7s(b9)(b9)[5]-([5]
|-4--5--0------|-7-7-7-7--7-7-7-7--7\---||-----7-5s7-7--------------------|

B5A5B5 D5 E5D5E5 B5A5B5 E5G#5


~~~~~~~~~PM|
|-------------------------|-----------------------------|
|-------------------------|-----------------------------|
|-------------------------|-----------------------------|
|-(9)---------7-7-9s7s(b9)(b9)|-(b9)----------------------(b9)--|
|-(7)-(b9)7s(b9)(b9)5-5-7s5s7-7-|-7-(b9)7s(b9)(b9)[5]-([5])-----7-6-|
|-----7-5s7-7-------------|---7-5s7-7-----------0-0---4-|

A5
|------------------x\-----||
|------------------x\----o||
|-------------------------||
|-------------------------||
|-(6)-7-7----------------o||
|-(4)-5-5--------------7--||
|
|
|-------------------------||
|------------------------o||
|-------------------------||
|-------------------------||
|-----7-7----------------o||
|-----5-5-0--(0)--(0)-----||

Bridge
2.
N.C.
.5
PM PM-
|--------------------------|----------------------|
|--------------------------|------10----10--10----|
|--------------(7)------|-------(b9)----(b9)--(b9)---|
|--------------(7)------|----------------------|
|-(6)-7-7------(7)------|----------------------|
|-----------------------(b9)|-(9)------x---------7-|
|
| PM-| PM
|--------------------------|----------------------|
|--------------------------|------10----10--10----|
|--------------------------|-------(b9)----(b9)--(b9)-4-|
|--------------------------|----------------------|
|---------------7-----7----|----------------------|
|--4--5-5-------5-----5--(b9)|-(9)------x-----------|
--------| PM PM----|
|-------------------------------------------|
|-------------------------------------------|
|-------------------------------------------|
|-------------------------------------------|
|----6-7--(b9)-9\----------6--7--9\-----------|
|--7--------------7---7------------5b5.5-2--|
|
|-------------------------------------------|
|----4-5-[7]------------[4]-5-[7]-----------|
|--4------------4-4-4-4---------------------|
|-------------------------------------------|
|-------------------------------------------|
|----------------------------------------2--|

~~~~
|---------------------------[12]-|
|------------10----10--10\-------|
|-------------(b9)----(b9)--9\-------|
|--------------------------------|
|--------------------------------|
|-(2)s=====6-----0---------------|
|
|--------------------------------|
|--------------------------------|
|-----------------------------4--|
|--------------------------------|
|--------------------------------|
|-(2)-(2)\-----------------------|

~~~~~~~~~~~~~~~~~~~~~~~~~~~~~~~~
|-[14]-[14]-[14]-[14]-[14]-[14]-|
|-------------------------------|
|-------------------------------|
|-------------------------------|
|-------------------------------|
|-------------------------------|
|
|-------------------------------|
|-------------4----5---[7]------|
|--------4----------------------|
|-------------------------------|
|-------------------------------|
|-------------------------------|

~~~~~~~~~~~~~~~~~~~~~~~~~~~~~~~~~~~~~~~~~~~~
|[16]-[16]-[16]-[16]-[16]-[16]-[16]-[16]-[16]----|
|---------------------------------------------10-|
|----------------------------------------------(b9)|
|------------------------------------------------|
|------------------------------------------------|
|------------------------------------------------|
|
|------------------------------------------------|
|---------------------[4]---5---[7]--------------|
|--4----4----4----4------------------------------|
|------------------------------------------------|
|----------------------------------------------(b9)|
|----------------------------------------------(b9)|

PM
|------------------------------------|
|-(10)-10-----10---(10)-----(10)-----|
|--(9)--(b9)-----(b9)---(9)------(9)-----|
|------------------------------------|
|------------------------------------|
|---------------------------------7--|
|
|------------------------------------|
|-------------10--------10---10------|
|--------------(b9)--------(b9)---(b9)--4--|
|------------------------------------|
|------------------------------------|
|--(9)--(b9)(9)--------x---------------|
PM----------------|
|---------------------------------|
|---------------------------------|
|---------------------------------|
|---------------------------------|
|----6-7-(b9)--------6-7-9\---------|
|--7-------7-7-7-7--------5b5.5p2-|
|
| PM------------------|
|---------------------------------|
|----4-5-7---------4-5-7----------|
|--4-------4-4-4-4----------------|
|---------------------------------|
|---------------------------------|
|-------------------------5b5.5p2-|

D5 E5 B5 A5
|------17---17--17\--|---------------7----------||
|------17---17--17\--|-----------------9b10r(9)-||
|--------------------|------(b9)------------------||
|--------------------|-7-7--(b9)------------------||
|--------------------|-5-5--7--(b9)--7------------||
|-(2)----------------|---------7---5------------||
|
|--------------------|--------------------------||
|------10---10--10---|--------------------------||
|-------(b9)---(b9)--(b9)--|------(b9)------------------||
|--------------------|-7-7--(b9)------------------||
|--------------------|-5-5--7--(b9)--7------------||
|-(2)----------------|---------7---5---------7--||

Guitar Solo
N.C.
~~~
|----------------------------------------------|
|-[7]b8-------([7])----------------------------|
|----------------------------------------------|
|---------------------[9]-7-[9]----------------|
|----------------------------------------------|
|-------------------------------------7\-----5-|
|
C#5
~~~~~~~
|-------------------------------------------|
|------------------------------------12b14==|
|------------------------7h(b9)7-(b9)7-(b9)-------|
|----------------7---(b9)----(b9)---------------|
|-7p5-7-----(b9)-----(b9)--(b9)-------------------|
|-------------------------------------------|
|

~~~~~~~
|---(b9)-------------------------------------------------|
|-(12)r---12b14-12p(b9)12b14--12b14r(12)-12b14-(12)-[12]-|
|------------------------------------------------------|
|------------------------------------------------------|
|------------------------------------------------------|
|------------------------------------------------------|
|
~~~~
|-----------------------------------------------------------------------|
|-12-[12]-[12]-[12]-[12]-[12]-[12]-[12]b13==(12)r(12)p(b9)---(b9)-----------|
|-------------------------------------------------------11---(b9)[11]-----|
|--------------------------------------------------------------------5--|
|-----------------------------------------------------------------------|
|-----------------------------------------------------------------------|
|

~
|-------------------------------------------|
|-------------------------------------------|
|--------------[11]b13-----(b9)---------------|
|-(5)--(5)-(b9)(b9)-----------------------------|
|-------------------------------------------|
|----------------------------12\-(b9)11---12--|
|
~~ ~~~~
|------------------------------------------|
|------------------------------------------|
|----------------11----10---(b9)-9h11p(b9)-----|
|--------------(b9)----(b9)---(b9)----------[12]p|
|--9b11-(b9)---------------------------------|
|---------12-(b9)----------------------------|
|
~~~~~ ~~~~~~~~~~~~~~~~~~~~~~~~~
|-------------------------7---7---------7----------|
|-------------------------7---7---------7-------10-|
|--------------x-x-9b11==(9)-(9)-------(9)r-0----(b9)|
|-[9]-------9\-x-x--------------------------0-(b9)---|
|--------------------------------------------------|
|--------------------------------------------------|
|

|------------------------------------7-|
|-(10)-------10\---(b9)(b9)(b9)--9s==5-----7-|
|--(9)--------9\---(b9)(b9)(b9)--------------|
|--------------------------------x-(b9)--|
|--------------------------------------|
|--------------------------------------|
|

PM
|-7---------------------------------------------|
|-7---------------------------------------------|
|---9b11==(9)r9p7-----(b9)--7h8-------------------|
|-------------------(b9)--(b9)----(b9)7h9p7---(b9)--7---|
|-------------------------------------(b9)--(b9)--(b9)|
|-----------------------------------------------|
|

C#5 D5
~~~
|-----------------------------------------||
|-----------------------------------------||
|-----------------------------------------||
|-----------------------------------------||
|-8-7s5h7--5h=7p=5----7-7---5---[5]-------||
|-------------------7-----7---7-------[7]-||
|

Verse4
N.C.
~~~PM----------| PM--------| ~~~~
|------------------------------------|
|------------------------------------|
|------------------------------------|
|------------------------------------|
|------------------------------------|
|-(7)-7-5-6-7-6-5-7--7-5-6-7-6-5-[0]-|

~~~~~PM--------| PM| PM----| PM------------| PM--------|


|--------------------------------|--------------------------------|
|--------------------------------|--------------------------------|
|--------------------------------|--------------------------------|
|--------------------------------|--------------------------------|
|--------------------------------|--------------------------------|
|-(0)-5-6-7-6-5-7--7-5-6-7-6-5-7-|--7-5-6-7-6-5-7--7-5-6-7-6-5-7--|

D5 E5 D5/A E5/B D5
~~~PM----------| PM--------|
|----------------------------------|-------------------------------|
|----------------------------------|-------------------------------|
|----------------------------------|-------------------------------|
|--------------------------------7-|-(7)s(b9)(b9)-(b9)x-7-(7)s(b9)(b9)-(b9)x-7-|
|--------------------------------5-|-(5)s7-7--7-x-5-(5)s7-7--7-x-5-|
|-(7)-5-6-[7]-6-5-7--7-5-6-7-6-5---|--------------5-(5)s7----------|
E5 D5E5 N.C.
PM------------| PM------| ~~~
|----------------------------|-------------------------------------|
|----------------------------|-------------------------------------|
|----------------------------|-------------------------------------|
|-(7)s(b9)(b9)-(b9)x-x-7-(b9)-(b9)(b9)---|-------------------------------------|
|-(5)s7-7--7-x-x-5-7--7-7----|-------------------------------------|
|--------------------------7-|-(7)-7-5-6-7-6-5-7--7-5-6-7-6-5-[7]--|

G#5A5 E5 D5
~~~
|--------------------------------|-------------------------|---------------|
|--------------------------------|-----10-10-10---10--10---|---------------|
|--------------------------------|------(b9)-(b9)-(b9)---(b9)--(b9)--|---------------|
|--------------------------------|-------------------------|---------(b9)-7--|
|--------------------------------|-------------------------|-6--7----7--5--|
|-(7)-5-6-7-6-5-7--7-5-6-7-6-5S(b9)|-(9)----------(b9)-------(b9)|-4--5--0-------|

Chorus 3
B5 E5 B5A5B5 E5
~~~~~~~~~
|------------------------||-------------------------------|
|------------------------||-------------------------------|
|------------------------||-------------------------------|
|----------------------(b9)||-(9)-------------------x-x-(b9)(b9)|
|-(b9)(b9)(b9)(b9)-(b9)(b9)(b9)(b9)----7-||-(7)-(b9)7s(b9)(b9)[5]-([5])-x-x-7-7-|
|-7-7-7-7--7-7-7-7--7\---||-----7-5s7-7-------------------|

B5A5B5 D5 E5D5E5
|--------------------------|
|--------------------------|
|--------------------------|
|-(9)---------7-7-9s7s(b9)(b9)-|
|-(7)-(b9)7s(b9)(b9)5-5-7s5s7-7--|
|-----7-5s7-7--------------|

B5A5B5 E5G#5 A5
~~~~~~~~~ ~~~ PM
|-----------------------------|-----------------------------------||
|-----------------------------|-----------------------------------||
|-----------------------------|-----------------------------------||
|-(b9)----------------------(b9)--|--------------7b9==(7)r(7)------||
|-7-(b9)7s(b9)(b9)[5]-([5])-----7-6-|-(6)-7-7-------------------7\---||
|---7-5s7-7-----------0-0---4-|-(4)-5-5-------------------------7-||

Outro
N.C.
PM-------------------------|
|-------------------------------|
|-------------------------------|
|-------------------------------|
|-------------------------------|
|-------------------------------|
|--7-5-6-7-6-5-7--7-5-6-7-6-5-7-|

PM--------|
|------------------------|
|------------------------|
|------------------------|
|--------------7---------|
|--------------5---------|
|--7-5-6-7-6-5-------[7]-|

~~~PM----------------------------------------| PM
|----------------------------------|----------------------|
|----------------------------------|----------------------|
|----------------------------------|----------------------|
|----------------------------------|--------------7-------|
|----------------------------------|--------------5-------|
|-(7)-7-5-6-7-6-5-7--7-5-6-7-6-5-7-|--7-5-6-7-6-5------7--|
D5
---M-----------------------------------------|
|-------------------------------|---------------------------*|
|-------------------------------|---------------------------*|
|-------------------------------|---------------------------*|
|-------------------------------|--------------7--x-x-x-x---*|
|-------------------------------|--------------5--x-x-x-x---*|
|--7-5-6-7-6-5-7--7-5-6-7-6-5-7-|--7-5-6-7-6-5--------------*|