Вы находитесь на странице: 1из 3

Watch a video how to play this song

GUANTANAMERA

Intro

e-----3-------0-------2-2---2-------------------------------------------

B-----0-------1-------1-1---1-------------------------------------------

G---0---0---0-------2---------------------- 4 times ------------------

D---------------0-------------------------------------------------------

A---------3---------------0---------------------------------------------

E-3---------------------------0-2---------------------------------------

Verse

e-----3-------0-------2-2---2---------3-------2-------2-2---2-----------

B-----0-------1-------1-1---1---------0-------1-------1-1---1-----------

G---0---0---0-------2---------------0---0---0-------2-------------------

D---------------0-------------------------------0-----------------------

A---------3---------------0---------------3---------------0-------------

E-3---------------------------0-2-3---------------------------0-2-------

e-----3-------0-------2-2---2---------3-------2-------2-2---2-----------

B-----0-------1-------1-1---1---------0-------1-------1-1---1-----------

G---0---0---0-------2---------------0---0---0-------2-------------------

D---------------0-------------------------------0-----------------------

A---------3---------------0---------------3---------------0-------------

E-3---------------------------0-2-3---------------------------0-2-------

e-----3-------0-------2-2---2---------3-------2-------2-2---2-----------

B-----0-------1-------1-1---1---------0-------1-------1-1---1-----------

G---0---0---0-------2---------------0---0---0-------2-------------------

D---------------0-------------------------------0-------------0---------

A---------3---------------0---------------3---------------0-----0-------

E-3---------------------------0-2-3-------------------------------------

Guantanamera

e-----0-------0-------2-2---2---------3-------2-------2-2---2-----------

B-----1-------1-------1-1---1---------0-------1-------1-1---1-----------

G---0---0---0-------2---------------0---0---0-------2-------------------

D---------------0-------------------------------0-----------------------

A-3-------3---------------0---------------3---------------0-------------

E-----------------------------0-2-3---------------------------0-2-------

e-----3-------0-------2-2---2---------3-------2-------2-2---2-----------

B-----0-------1-------1-1---1---------0-------1-------1-1---1-----------

G---0---0---0-------2---------------0---0---0-------2-------------------

D---------------0-------------------------------0-----------------------

A---------3---------------0---------------3---------------0-------------

E-3---------------------------0-2-3---------------------------0-2-------

Last Chorus (THE END)

e-----0-------0-------2-2---2---------3-------2-------2-2---2-----------

B-----1-------1-------1-1---1---------0-------1-------1-1---1-----------

G---0---0---0-------2---------------0---0---0-------2-------------------

D---------------0-------------------------------0-----------------------

A-3-------3---------------0---------------3---------------0-------------

E-----------------------------0-2-3---------------------------0-2-------

e-----3-------0-------2-2---2---------3---------------------------------

B-----0-------1-------1-1---1---------0------------1--------1-----------

G---0---0---0-------2---------------0---0-------0--------2--------2-----

D---------------0----------------------------2--------0--------0--------

A---------3---------------0---------------3-----------------------------

E-3---------------------------0-2-3-------------------------------------

e-2--0----------------3-------------------------------------------------

B-1-----3--1---------0--------------------------------------------------

G-2-----------------0---------------------------------------------------

D-0----------------0----------------------------------------------------

A-----------------2-----------------------------------------------------

E----------------3------------------------------------------------------