Вы находитесь на странице: 1из 4

VIA DOLOROSA

============
Afinación en C

E5 F5 G5 Bb A5 G5 F1
E|------------------------------------------|
B|------------------------------------------|
G|------------------------------------------|
D|-2222222233333333555555558888777755553333-|
A|-2222222233333333555555558888777755553333-|
E|-0000000000000000000000000000000000000000-|
| |
G|------------------------------------------|
D|------------------------------------------|
A|------------------------------------------|
E|-0000000011111111333333336666555533331111-|
________________4 veces _________________

INTRO ESTROFA: UNA VEZ


E|-------------------------------------------------------------------|
B|-------------------------------------------------------------------|
G|-------------------------------------------------------------------|
D|-2-2-----3--2--2-2-----3--2------2-2----3--2--2-2----3--2--3-(5)-6-|
A|-2-2--2--------2-2--2-------3—2-—2-2--2-------2-2-2----------------|
E|-0-0-----------0-0---------------0-0----------0-0------------------|
| |
G|-------------------------------------------------------------------|
D|-------------------------------------------------------------------|
A|-------------------------------------------------------------------|
E|-0-0-----------0-0---------------0-0----------0-0-------------15/0-|

Con bateria: 5 veces


E|-------------------------------------------------------------------|
B|-------------------------------------------------------------------|
G|-------------------------------------------------------------------|
D|-2-2-----3--2--2-2-----3--2------2-2----3--2--2-2----3--2--3-(5)-6-|
A|-2-2--2--------2-2--2-------3—2-—2-2--2-------2-2-2----------------|
E|-0-0-----------0-0---------------0-0----------0-0------------------|
| |
G|-------------------------------------------------------------------|
D|---------3--2----------3--2-------------3--2---------3--2--3-(5)-6-|
A|------2-------------2-------3—2-—-----2-----------2----------------|
E|-0-0-----------0-0---------------0-0----------0-0------------------|

Fin estrofa/ intro al estribillo


E|---------------------------|
B|---------------------------|
G|---------------------------|
D|-2-2----2-2----2-2----2----|
A|-2-2----2-2---—2-2----2----|
E|-0-0----0-0----0-0----0----|
| |
G|---------------------------|
D|---------------------------|
A|---------------------------|
E|-0-0----0-0----0-0----0----|

ESTRIBILLO: 4 veces
E|-------------------------------------------------|
B|-------------------------------------------------|
G|99779910997755779977554455775544-----------------|
D|xxxxxxxxxxxxxxxxxxxxxxxxxxxxxxxx-----------------|
A|77557788775533557755332233553322-----------------|
E|---------------------------------000111333111000-|
| |
G|-------------------------------------------------|
D|-------------------------------------------------|
A|-7-5-7-8-7-5-3-5-7-5-3-2-3-5-3-2-----------------|
E|---------------------------------0—-1—-3—-1--0---|

4 veces
E|--------------------------|
B|--------------------------|
G|--------------------------|
D|--------------------------|
A|-2-2-3-2-2-5-2-2-3-/-6-5--|
E|-0-0-1-0-0-3-0-0-1-/-4-3--|
| |
G|--------------------------|
D|--------------------------|
A|--------------------------|
E|-0-0-1-0-0-3-0-0-1-/-4-3--|

B5 E5 C5 F5
E|-------------------------------------------------|
B|-------------------------------------------------|
G|-------------------------------------------------|
D|-9-----------2-----------10----------3-----------|
A|-9-----------2-----------10----------3-----------|
E|-7-----------0-----------8-----------1-----------|
| 2 veces |
G|-------------------------------------------------|
D|-------------------------------------------------|
A|-------------------------------------------------|
E|-7-----------0-----------8-----------1-----------|

2 veces
E|-------------------------------------------------|
B|-------------------------------------------------|
G|-------------------------------------------------|
D|-------------------------------------------------|
A|-9-9-10109-9-2-2-3-3-2-2-1010121210103-3-5-5-3-3-|
E|-7-7-7-7-7-7-0-0-0-0-0-0-8-8-8-8-8-8-1-1-1-1-1-1-|
| |
G|-------------------------------------------------|
D|-------------------------------------------------|
A|-------------------------------------------------|
E|-7-7-7-7-7-7-0-0-0-0-0-0-8-8-8-8-8-8-1-1-1-1-1-1-|

6 veces
E|-------------------------------------------------|
B|-------------------------------------------------|
G|-------------------------------------------------|
D|-44444444444455555555555522222222222277777777777-|
A|-22222222222277777777777733333333333388888888888-|
E|-------------------------------------------------|
| |
G|-------------------------------------------------|
D|-------------------------------------------------|
A|-22222222222277777777777733333333333388888888888-|
E|-------------------------------------------------|

intro al estribillo
E|---------------------------|
B|---------------------------|
G|---------------------------|
D|-2-2----2-2----2-2----2----|
A|-2-2----2-2---—2-2----2----|
E|-0-0----0-0----0-0----0----|
| |
G|---------------------------|
D|---------------------------|
A|---------------------------|
E|-0-0----0-0----0-0----0----|

ESTRIBILLO: 4 veces
E|-------------------------------------------------|
B|-------------------------------------------------|
G|99779910997755779977554455775544-----------------|
D|xxxxxxxxxxxxxxxxxxxxxxxxxxxxxxxx-----------------|
A|77557788775533557755332233553322-----------------|
E|---------------------------------000111333111000-|
| |
G|-------------------------------------------------|
D|-------------------------------------------------|
A|-7-5-7-8-7-5-3-5-7-5-3-2-3-5-3-2-----------------|
E|---------------------------------0—-1—-3—-1--0---|

FINAL: 4 veces
E|--------------------------------------------------------------------|
B|--------------------------------------------------------------------|
G|--------------------------------------------------------------------|
D|-2--2--1--3--1--2--2—-2--1--3--4--3—-2—-2--1--3--1--2--2—-2---------|
A|-2-—2--1--3--1—-2--2-—2--1--3--4--3--2--2--1--3--1--2--2--2-------1’|
E|-0--0--1--3—-1—-0--0—-0--1--3--4--3--0--0--1--3--1--0--0--0--1--3---|
| |
G|--------------------------------------------------------------------|
D|--------------------------------------------------------------------|
A|------------------------------------------------------------------1-|
E|-0--0--1--3—-1—-0--0—-0--1--3--4--3--0--0--1--3--1--0--0--0--1--3---|

Un cuarto del estribillo y listo