Вы находитесь на странице: 1из 4

http://acordestotales.

com/artistas/musica-catolica
LETRA Y ACORDES DE QUIZAS, QUIZAS, QUIZAS
(Letra y música de Osvaldo Farrés)
Intro
LAm REm LAm REm LAm MI7 LAm
LAm REm
Siempre que te pregunto, que cuando,
LAm REm LAm
como y donde, tu siempre me respondes
LAm MI7 LAm
quizás, quizás, quizás.
LAm REm LAm
Y así pasan los días, y yo, desesperando,
REm LAm MI7 LAm
y tu, tu contestando, quizás, quizás, quizás

MI7 LA
Estás perdiendo el tiempo, pensando, pensando
MI7
por lo que mas tu quieras,
LA
hasta cuando, hasta cuando
LAm REm LAm
Y así pasan los días, y yo, desesperando,
REm LAm MI7 LAm
y tu, tu contestando, quizás, quizás, quizás
LAm REm LAm REm LAm MI7 LAm
LAm REm LAm
Y así pasan los días, y yo, desesperando,
REm LAm MI7 LAm
y tu, tu contestando, quizás, quizás, quizás
MI7 LA
Estás perdiendo el tiempo, pensando, pensando
MI7
por lo que mas tu quieras,
LA
hasta cuando, hasta cuando
MI7 LA
Estás perdiendo el tiempo, pensando, pensando
MI7
por lo que mas tu quieras,
LA
hasta cuando, hasta cuando
LAm REm LAm
Y así pasan los días, y yo, desesperando,
REm LAm MI7 LAm
y tu, tu contestando, quizás, quizás, quizás
LAm MI7 LAm LAm MI7 LAm
quizás, quizás, quizás, quizás, quizás, quizás
Tu cárcel de enanitos verdes en guitarra acústica 
E|--0/2--2--0-----------0--2--2-----0---0-------------------0--0--|
B|-------------3----3--3---------3---------3--2----2--2--3---------

E|-----------------------------------------------------------------
----|
B|--2--3----3--2--0----0--0--0--0--2--3--2--3h5--5-----------|
G|-----------------------------------------------------------------
---| (2x)
RE LA
Te vas amor, si así lo quieres que puedo yo hacer
si m SOL LA
tu vanidad no te deja entender, que en la pobreza se sabe querer
RE LA
quiero llorar, y me destroza que pienses así
si m SOL
y mas que ahora me quede sin ti
LA
me duele lo que tu vas a sufrirrrrrrrrrrr
RE
pero recuerda, nadie es perfecto
LA
y tu lo veraz
sim SOL
mas de mil cosas mejores tendrás
LA
pero cariño sincero jamasssssssss
RE
vete olvidando, de eso que hoy dejas
LA si m SOL
y que cambiaras, por la aventura que tu ya veraz
LA
sera tu cárcel y nunca saldrás

E|--0/2--2--0-----------0--2--2-----0---0-------------------0--0--|
B|-------------3----3--3---------3---------3--2----2--2--
3---------|
E|-----------------------------------------------------------------
-----|
B|--2--3----3--2--0----0--0--0--0--2--3--2--3h5--5------------|

RE LA
quiero llorar, y me destroza que pienses así
Bm SOL
y mas que ahora me quede sin ti
LA
me duele lo que tu vas a sufrir
RE
pero recuerda, nadie es perfecto
LA
y tu lo veraz
si m SOL
mas de mil cosas mejores tendrás
LA
pero cariño sincero jamasssssssss
RE
vete olvidando, de eso que hoy dejas
LA sim SOL
y que cambiaras, por la aventura que tu ya veraz
LA
será tu cárcel y nunca saldrás

RE
pero recuerda nadie es perfecto
LA
y tu lo veraz
si m SOL
mas de mil cosas mejores tendrás
LA
pero cariño sincero jamas
RE
vete olvidando, de eso que hoy dejas
LA si m SOL
y que cambiaras, por la aventura que tu ya veraz
LA
sera tu cárcel y nunca saldrás

E|--0/2--2--0-----------0--2--2-----0---0-------------------0--0--|
B|-------------3----3--3---------3---------3--2----2--2--3
E|-----------------------------------------------------------------
------|
B|--2--3----3--2--0----0--0--0--0--2--3--2--3h5--5-------------|
INTRODUCCIÓN: MIm-LAm-MIm-SI7-MI7(se repite varias veces)
se debe hacer este punteo 2 veces

E-12-11-9--9-11-12-11-9-9-7--7-9-11-9-7-7-6--6-7-9-7-9-11----
B-------------------------------------------------------------------
G-------------------------------------------------------------------
D-------------------------------------------------------------------
A-------------------------------------------------------------------
E-------------------------------------------------------------------

MIm LAm
como quisiera olvidarte borrar de mi

MIm SI7 MI7


del recuerdo pasado y volver a amar, amar amar

LAm MIm
porque tu destrosaste mis sueños

SI7 MI7
se apago mi sonrisa se acabo mi esperanza(bis)

LAm MIm
volver amar encontrar otro amor

SI7 MI7
que me de su calor que me de su ternura(bis)

recitado:

LAm
volver a amar olvidar esta pena

MIm SI7 MI7


que entristece mi alma y que ahoga mi vida

LAm MIm
porque tu destrosaste mis sueños

SI7 MI7
se apago mi sonrisa se acabo mi esperanza

Acompañamiento a las antaras(zampoñas)

LAm-MIm-SI7-MI7
LAm-MIm-SI7-MI7-MIm

se repite toda la cancion y se termina


con el acompañamiento a las zampoñas