Вы находитесь на странице: 1из 3

THIS WILD LIFE

"Roots and Branches" LIVE


C-G-C-G-C-E Acoustic lead guitar
C-G-C-F-G-C Acoustic rhythm
Eb-Bb-Db-Gb-Bb-Ee Electric Lead

ACOUSTIC LEAD
E |------------------------------------------------------------------------
C |----------------------------------------------------0-------------------
G |-0-----0--------7-----5--------0--------0--------------0----------------
C |-4-----4-----4-----4-----4-----0--------0--------0--------0-------------
G |-5--5-----5-----5-----------5-------------------------------------------
C |-------------------------------5-----5--------5-------------------------

E |------------------------------------------------------------------------
C |-4--------4-----------2-----4--------0--------0--------0----------------
G |-------0-----0-----0-----------0-----0--------0-----------0-------------
C |----0-----------0--------0--------0--0--------0-----0--------0----------
G |-2--------------------0-------------------------------------------------
C |-------------------------------------5-----5----------------------------

E |------------------------------------------------------------------------
C |----------------------------------------------------0-------------------
G |-0-----0--------7-----5--------0--------0--------------0----------------
C |-4-----4-----4-----4-----4-----0--------0--------0--------0-------------
G |-5--5-----5-----5-----------5-------------------------------------------
C |-------------------------------5-----5--------5-------------------------

E |------------------------------------------------------------------------
C |-4--------4-----------2-/4-----4-/2-p0-----0--------0--------0----------
G |-------0-----0-----0-----------------------0--------0-----------0-------
C |----0-----------0-----------0-----------0--0--------0-----0--------0----
G |-2--------------------0-------------------------------------------------
C |-------------------------------------------5-----5----------------------

E |----------------------------------------------------5-/3--3--------3----
C |----------------------------------------------------------4-----4-----4-
G |-0-----0--------7-----5--------0--------0--------------------0----------
C |-4-----4-----4-----4-----4-----0--------0--------0----------------------
G |-5--5-----5-----5-----------5-----------------------------2-------------
C |-------------------------------5-----5--------5-------------------------

E |----------------------------3-p0--------0--------0----------------------
C |----4--2-----4--------0-----------0--------0--------0-------------------
G |-0--------------0-----0--------------0--------0--------0----------------
C |----------0--------0--0-------------------------------------------------
G |-------0----------------------------------------------------------------
C |----------------------5-------------------------------------------------

E |------------------------------------------------------------------------
C |----------------------------------------------------0-------------------
G |-0-----0--------7-----5--------0--------0--------------0----------------
C |-4-----4-----4-----4-----4-----0--------0--------0--------0-------------
G |-5--5-----5-----5-----------5-------------------------------------------
C |-------------------------------5-----5--------5-------------------------

E |------------------------------------------------------------------------
C |-4--------4-----------2-----4--------0----------------------------------
G |-------0-----0-----0-----------0-----0----------------------------------
C |----0-----------0--------0--------0--0----------------------------------
G |-2--------------------0-------------------------------------------------
C |-------------------------------------5----------------------------------

E |-0-----0--------------3--------------------0--------------------------0-
C |-0-----0--------------0--------------------0--------------------------0-
G |-0-----0--------------0--------------------0--------------------------0-
C |-0-----0--------------0--------------------0--------------------------0-
G |-0-----2--------------5--------------------0--------------------------0-
C |-5-----------------------------------------5--------------------------7-

ELECTRIC LEAD
Eb |-------------------8--------------------------------------9-------------
Bb |----6--------6--------9-/6-/4-/6-/9--------6--------6-------------------
Gb |-6-----6-/8-----8-----------------------3-----6-/8-----8----------------
Db |------------------------------------------------------------------------
Ab |------------------------------------------------------------------------
Eb |------------------------------------------------------------------------

Eb |-13-------13-------13-------13----11-------13-------13----13----11----13
Bb |-14-------11-------14-------11-------------14-------11----14----------11
Gb |-15-------11-------15-------11-------------15-------11----15----------11
Db |------------------------------------------------------------------------
Ab |------------------------------------------------------------------------
Eb |------------------------------------------------------------------------

Eb |-13----13----13----13----13----13----13----13----16----16----16----16---
Bb |----14----14----14----14----14----14----14----14----14----14----14----14
Gb |------------------------------------------------------------------------
Db |------------------------------------------------------------------------
Ab |------------------------------------------------------------------------
Eb |------------------------------------------------------------------------

Eb |-14----14----13----13----11----11----11----11----11----11----11----11---
Bb |----14----14----14----14----14----14----14----14----14----14----14----14
Gb |------------------------------------------------------------------------
Db |------------------------------------------------------------------------
Ab |------------------------------------------------------------------------
Eb |------------------------------------------------------------------------

Eb |-13----13----13----13----14----14----13----13---------------------------
Bb |----14----14----14----14----14----14----14----14------------------------
Gb |------------------------------------------------------------------------
Db |------------------------------------------------------------------------
Ab |------------------------------------------------------------------------
Eb |------------------------------------------------------------------------

Eb |-13----13----13----13----13----13----13----13----16----16----16----16---
Bb |----14----14----14----14----14----14----14----14----14----14----14----14
Gb |------------------------------------------------------------------------
Db |------------------------------------------------------------------------
Ab |------------------------------------------------------------------------
Eb |------------------------------------------------------------------------

Eb |-14----14----13----13----11----11----11----11----11----11----11----11---
Bb |----14----14----14----14----14----14----14----14----14----14----14-13---
Gb |------------------------------------------------------------------------
Db |------------------------------------------------------------------------
Ab |------------------------------------------------------------------------
Eb |------------------------------------------------------------------------

RHYTHM GUITAR
CHORUS
i feel nothing………………………………running……………………………………………when will…………………………….man
C |-0-----0--------------------0--------------------0--------------------0-
G |-0-----0--------------------0--------------------0--------------------0-
F |-4-----7--------------------7--------------------4--------------------6-
C |-5-----9--------------------0--------------------5--------------------7-
G |-5-----9--------------------0--------------------5--------------------7-
C |-5-----9--------------------0--------------------5--------------------7-

POSTCHORUS
alone……………………
C |-0--------------------0--------------------------0--------------------0-
G |-0--------------------0--------------------------0--------------------0-
F |-7--------------------6--------------------------7--------------------4-
C |-9--------------------7--------------------------0--------------------5-
G |-9--------------------7--------------------------0--------------------5-
C |-9--------------------7--------------------------0--------------------5-

VERSE
lay……………………………………………………car…………………………………………hold………………………………………………………………….star
C |-0-----0-----0--------0-----------------0--------0-----0--------------0-
G |-0-----0-----0--------0-----------------0--------0-----0--------------0-
F |-7-----6-----7--------4-----------------7--------6-----7--------------4-
C |-0-----0-----0--------5-----------------9--------7-----0--------------5-
G |-0-----0-----0--------5-----------------9--------7-----0--------------5-
C |-0-----0-----0--------5-----------------9--------7-----0--------------5-

CHORUS
C |-0-----0--------------------0--------------------0--------------------0-
G |-0-----0--------------------0--------------------0--------------------0-
F |-4-----7--------------------7--------------------4--------------------6-
C |-5-----9--------------------0--------------------5--------------------7-
G |-5-----9--------------------0--------------------5--------------------7-
C |-5-----9--------------------0--------------------5--------------------7-

OUTRO
C |-0--------------------0--------------------------0--------------------0-
G |-0--------------------0--------------------------0--------------------0-
F |-7--------------------6--------------------------7--------------------4-
C |-9--------------------7--------------------------0--------------------5-
G |-9--------------------7--------------------------0--------------------5-
C |-9--------------------7--------------------------0--------------------5-

If this is wrong I'm sorry I'm just so bad at doing these, I barely know how to
play our songs.