Вы находитесь на странице: 1из 2

GOD IN ME

Liveloud / Ablaze Music

Standard Tuning

(/) Slide Up (\) Slide Down (h) Hammer On (p) Pull Off
(b) Bend (~~) Vibrato / Sustain (p.m.) Palm Mute

CHORDS:

Intro: D-G
Verse: D-G-D-G
Refrain: Em - A, Em - D/F# - G
Chorus: G - A - G - Bm
G - Bm - G - A
Instrumental: Bm - G - D - A
Bridge: Bm - G - D - A

CHORUS: (Fill-in)
G A
E|-------------------------------------|-------------------------------------|
B|--12--12--12--12--12--12/14--14--14--|--14/15--15--15--15--15--15--15--15--|
G|-------------------------------------|-------------------------------------|
D|-------------------------------------|-------------------------------------|
A|-------------------------------------|-------------------------------------|
E|-------------------------------------|-------------------------------------|

G Bm
E|-------------------------------------|----------------------------------|
B|--17--17--17--17--17--17--17--17/19--|--19--19--19--19--19--19--19--19--|
G|-------------------------------------|----------------------------------|
D|-------------------------------------|----------------------------------|
A|-------------------------------------|----------------------------------|
E|-------------------------------------|----------------------------------|

G Bm
E|-------------------------------------|-------------------------------------|
B|--12--12--12--12--12--12/14--14--14--|--14/15--15--15--15--15--15--15--15--|
G|-------------------------------------|-------------------------------------|
D|-------------------------------------|-------------------------------------|
A|-------------------------------------|-------------------------------------|
E|-------------------------------------|-------------------------------------|

G A
E|----------------------------------|----------------------------------|
B|--12--12--12--12--12--12--12--10--|--10--10--10--10--10~~~-----------|
G|----------------------------------|----------------------------------|
D|----------------------------------|----------------------------------|
A|----------------------------------|----------------------------------|
E|----------------------------------|----------------------------------|
INSTRUMENTAL 1:
Bm G
E|--10--10--10--10--10--10--9--9--|----------------------------------|
B|--------------------------------|--10--10--10--10--10--10--10--10--|
G|--------------------------------|----------------------------------|
D|--------------------------------|----------------------------------|
A|--------------------------------|----------------------------------|
E|--------------------------------|----------------------------------|

D A
E|--------------------------|--------------------------|
B|--7--7--7--7--7--7--7--7--|--5--5--5--5--5--8--8--7--|
G|--------------------------|--------------------------|
D|--------------------------|--------------------------|
A|--------------------------|--------------------------|
E|--------------------------|--------------------------|

BRIDGE: (Guitar 1 and 2)


Guitar 1 (Repeat Instrumental 1)

Guitar 2
Bm G
E|----------------------------------|----------------------------------|
B|--12--12--12--12--12--12--12--12--|--12--12--12--12--12--12--12--12--|
G|--11--11--11--11--11--11--11--11--|--12--12--12--12--12--12--12--12--|
D|----------------------------------|----------------------------------|
A|----------------------------------|----------------------------------|
E|----------------------------------|----------------------------------|

D A
E|----------------------------------|----------------------------------|
B|--15--15--15--15--15--15--15--15--|--15--15--15--15--15--15--15--15--|
G|--14--14--14--14--14--14--14--14--|--15--15--15--15--15--15--15--15--|
D|----------------------------------|----------------------------------|
A|----------------------------------|----------------------------------|
E|----------------------------------|----------------------------------|

INSTRUMENTAL 2: (Repeat 2x)


Bm G
E|----------------------------------------|----------------------------------------|
B|--12--12--12--12--12--12/14--14--14/15--|--15--15--15--15--15--15/17--17--17/19--|
G|----------------------------------------|----------------------------------------|
D|----------------------------------------|----------------------------------------|
A|----------------------------------------|----------------------------------------|
E|----------------------------------------|----------------------------------------|

D A
E|----------------------------------|-------------------------------------|
B|--19--19--19--19--19--19--19--19--|--17--17--17--17--17--20--20--19~~~--|
G|----------------------------------|-------------------------------------|
D|----------------------------------|-------------------------------------|
A|----------------------------------|-------------------------------------|
E|----------------------------------|-------------------------------------|