Вы находитесь на странице: 1из 2

God’s Not Dead by Newsboys Guitar Tab (pg 1 of 2)

Relative to Capo 4 Standard Tuning

()= Harmonic / = Slide down \ = Slide up

Note: This tab is based on my video on my YouTube Channel

(0:00) = Indicates when this occurs on my video

Intro x 3 (0:12) (0:49) (1:41) (2:33) (3:58)

e |------------------------------------------------------------------|
B |3-3-3-0-0-0-0-0-3-3-3---------------------------------------------|
G |0-0-0-0-0-0-0-0-2-2-2-0-0-0-0-0-0-----0-0-0-0-0-0-0-0-0-0-0-0-0-0-|
D |----------------------4-4-4-4-4-4-/-5-5-5-5-5-5-5-5-5-5-5-5-5-5-5-|
A |------------------------------------------------------------------|
E |------------------------------------------------------------------|

Verse (0:34) (0:56) (1:48)

e |-------------|
B |------(5)----|
G |-7-(5)---(7)-|
D |-------------|
A |-------------|
E |-------------|

Intro x 1 (0:49)

Verse x 1 (0:56)

Pre-Chorus (1:11) (2:03)

e |-----------------------------------------------------------------|
B |-----------------------------------------------------------------|
G |-----2---2-----2-----2---2---2-------4---4-----4-----4---4---4---|
D |-0-0---0---0-0---0-0---0---0---0-0-0---0---0-0---0-0---0---0---0-|
A |-----------------------------------------------------------------|
E |-----------------------------------------------------------------|

e |---------------------------------------------------------------|
B |---------------------------------------------------------------|
G |-----2---2-----2-----2---2---2---------------------------------|
D |-0-0---0---0-0---0-0---0---0---0---2---2---2---2---------------|
A |---------------------------------3---3---3---3---3-3-3-3-3-\-1-|
E |---------------------------------------------------------------|

Chorus D* Em D Em C *(Skip the 1st D in the beginning) (1:30) (2:22)


God’s Not Dead by Newsboys Guitar Tab (pg 2 of 2)
Intro (1:41)

Verse (1:48)

Pre-Chorus (2:03)

Chorus (2:22)

Intro x 2 (2nd time hold on the 1st hit of the last note) (2:33)

Bridge (2:58)

e |-------------|
B |-8-7-4-/-5-1-|
G |-------------|
D |-------------|
A |-------------|
E |-------------|

e |-----7-8---7-----7-8-7---7-------2---2---3-3-2---2---|
B |-8-8-----8---8-7-------7---7-5-5---5---5-------5---5-|
G |-----------------------------------------------------|
D |-----------------------------------------------------|
A |-----------------------------------------------------|
E |-----------------------------------------------------|

e |-------------0-0-0-0-0-0-|
B |-1-1-1-1-1-1-1-1-1-1-1-1-|
G |-------------------------|
D |-------------------------|
A |-------------------------|
E |-------------------------|

End Chorus Em D Em D Em D Em C (3:32)

Intro x 3 (On the last one, strum 1 time per change) (3:58)

Tabbed by Andy Dupuy


Download for FREE more guitar tabs @ andyschristianguitartab.weebly.com
Subscribe to my YouTube Channel @TheAndyDidIt
Follow me on Twitter @AndyDidIt / Email me: andysguitartab@yahoo.com