Вы находитесь на странице: 1из 5

This is basically the same thing over and over. It is an awesome song.

Verse:
G|---------------|
D|-4-4---------4-|
A|-----4-2-2-4---|
E|---------------|
Pre-Chorus:
G|---------|
D|---------|
A|---2---2-|
E|-4---4---|
Chorus:
G|-----------------------------------------|
D|-4-4-4-4-4-------------------------------|
A|---------------------2-2-2-2-2-----------|
E|-----------4-4-4-4-4-----------4-4-4-4-4-|
Bridge:
G|-----------------------------------------|
D|---------4-4-4-4-3-3-1-1-1-1-4-4-4-4-3-3-|
A|-----------------------------------------|
E|-2-2-2-2---------------------------------|
End:
G|----------------|
D|--4-----4-----4-|
A|-----2-----2----|
E|----------------|

Waterfall by Reuben Morgan(world through your eyes cd)


Intro(riff-lead guitar)
e|-3-3-3-5--2-2-2-5---8-8-8-10--7-7-7h8p7-----
b|--3-3-3--3-3-3-3--3--8-8-8---8-8-8------8~--
Chords
G 3x0033
Em7 022033
Dsus4 xx0233
C2 x32033
Verse 1
G Dsus4
Here I am dieing to say
Em7 C2
I am desperate for your touch
G Dsus4 Em7 C2
I fall upon this desert ground and I am empty at your feet
Em7 G C2
Will you break me now
Em7 G C2
Will you take me in your grace
Chorus
G
Take me deeper in love
Dsus4 Em7
Take me deeper with you
C2 G
Where the streams of your mercy run
Dsus4
Feel your waves over me
Em7
Feel your power over me
C2
In the roar of your waterfall
Chorus (lead guitar)
e|---7-(x4)-----5(x6)---8(x4)----7(x4)-|
b|--8---------8-------8--------8-------|
go back to Intro Riff
Verse 2(same as verse 1)
Wash away the hidden stains
Of my falleness I pray
I ll tell the world
Of all you ve done
Of your saving power in me
Saturate me now
Ever leave me in your grace
beautiful one
E-----------------5------------------------5--7----|
B--------7-----------7-----------------------------|
G-----7--------7--------7-----6--7--6------------7-|
D--5--------5--------------7-----------7-----------|
A--------------------------------------------------|
E--------------------------------------------------|

E-----------------5------------------------5--7----|
B--------7-----------7-----------------------------|
G-----7--------7--------7-----6--7--6------------7-|
D--5--------5--------------7-----------7-----------|
A--------------------------------------------------|
E--------------------------------------------------|
E-----------------5------------------------5--7----|
B--------7-----------7-----------------------------|
G-----7--------7--------7-----6--7--6------------7-|
D--5--------5--------------7-----------7-----------|
A--------------------------------------------------|
E--------------------------------------------------|
VERSE 1:
G A
Wonderful, So Wonderful
D/F#
Is Your Unfailing Love,
G A Bm7
Your cross has spoken mercy over me
G A
No eye has seen, no ear has heard
D/F#
No heart could fully know,
G A D
How glorious, how beautiful You are
CHORUS:
G A
Beautiful One, I love You
G A
Beautiful One, I adore
G A D
Beautiful One my soul must sing
VERSE 2:
Powerful, so Powerful
Your glory fills the skies
Your mighty works displayed for all to see
The beauty of Your majesty
Awakes my heart to sing;
How marvelous, How wonderful You are
BRIDGE:
G A
You've opened my eyes to Your wonders anew
G A
You captured my heart with this love
G A D
'Cos nothing on earth is as beautiful as Y
CODA:
G A
My soul, my soul must sing
Bm A/C#
My soul, my soul must sing
G A
My soul, my soul must sing
D
Beautiful One

i can only imagine


e|----11-12----------7----7---------------5-|
B|----------12---4-5----45----4-5-----4-5---|
G|--------------------------------6---------|
D|------------------------------------------|
A|------------------------------------------|
E|------------------------------------------|
mercy me
This is how i play it at my church
You play it this way first
E----------------------7------7------------------5-----------------------|
B-------4-5-0-----4-5------4-5-----4-5-2----4-5--------------------------|
G------------------------------------------------------------------------|
D------------------------------------------------------------------------|
A------------------------------------------------------------------------|
E------------------------------------------------------------------------|
Then play this
E-------11-12-7----11-12-19---11-12-19-----11-12-9-----11-12-17--|
B----------------------------------------------------------------|
G----------------------------------------------------------------|
D----------------------------------------------------------------|
A----------------------------------------------------------------|
E----------------------------------------------------------------|
--------------------------------------------------------------------------------
---------
This is played as the intro and througout the song
Mercy Me - I Can Only Imagine
e|-11-12-7------7----7-------------5------------------------
B|----------4-5----45---4-5-2--4-5--------------------------
G|----------------------------------------------------------
D|----------------------------------------------------------
A|----------------------------------------------------------
E|----------------------------------------------------------
e|-11-12-7------7-------------5-----------------------------
B|----------4-5----4-5-2--4-5-------------------------------
G|----------------------------------------------------------
D|----------------------------------------------------------
A|----------------------------------------------------------
E|----------------------------------------------------------

All around me I see what weakness has made


Too much tomorrow I think I'll take all today
Am I a poison, Am I a thorn in the side
Am I a picture, perfect subject tonight
I don't need nobody
I don't need the weight of words to find a way
To crash on through
I don't need nobody
I just need to learn the depth
Or doubt of faith to fall into
Here I slumber to awaken my daze
I find convenience in this savior I save
Am I a prison, Am I a source of dire news
Am I a picture perfect reason for you
I don't need nobody
I don't need the weight of words to find a way
To crash on through
I don't need nobody
I just need to learn the depth or doubt
Of faith to fall into
In this time of substitute
It's my needs I've answered to (All the while)
And the hope that I invest
Still turns to signals of distress (All the while)
I don't need nobody
I don't need the weight of words to find a way
To crash on through
I don't need nobody
I just need to learn the depth or doubt
Of faith to fall into
You're all I need
When the water runs deep
You're all I need
Now I cry my soul to sleep
You're all I need [4x]